Sound will begin in 5 seconds

ESCALA Gsus ELLIE GOULDING

01234567891011121314151617181920212223
E
B
G
D
A
E
B
0 1 2 3 4 5 6 7 8 9 10 11 12 13 14 15 16 17 18 19 20 21 22 23
Song Science #1: How Pros Use 6 Chords to Write Hit Songs
(/) Slide Up  (\) Slide Down  (h) Hammer On  (p) Pull Off  (b) Bend (r) Release (v) Vibrato

Stave 1:

E|----------------------------------------------------------16----------------------------------------
B|----------------------------------------------------16-18----18-16----16----------------------------
G|-------------------------------------13-15----15/17----------------17----17-15-13-------13----------
D|-------------------10-11-13----13-15-------15-------------------------------------15-13----15-13----
A|----------10-11-13----------15-------------------------------------------------------------------15-
E|----11-13-------------------------------------------------------------------------------------------

Stave 2:

E|----------------------------------------------------------18/20-20-16-18-15-16-13-15-11-13-9/11----
B|-------------------------------------------------18-20-21---------------------------------------13-
G|-------------------15-17-18-20----------17-18-20---------------------------------------------------
D|----------15-17-18-------------17-18-20------------------------------------------------------------
A|-15-16-18------------------------------------------------------------------------------------------
E|---------------------------------------------------------------------------------------------------

Stave 3:

E|--------------------------------------------------------------------
B|------------------------------------8-9----8-9-11-13-14-16-18-20-21-
G|-------------------------------8-10-----10--------------------------
D|-----------5-6-8p6p5h6/8-10/11--------------------------------------
A|-------6-8----------------------------------------------------------
E|-6-8-9--------------------------------------------------------------

http://www.guitartabcreator.com
Guitar Tab Creator is intended to store guitar tab created through the tool. It currently does not support in-line text editing. Any text you place in here will be lost. If you need to comment on your tab, please use the "Tab Notes" section located below.