Sound will begin in 5 seconds

ESCALA Dsus TITANIUM

01234567891011121314151617181920212223
E
B
G
D
A
E
B
0 1 2 3 4 5 6 7 8 9 10 11 12 13 14 15 16 17 18 19 20 21 22 23
Song Science #1: How Pros Use 6 Chords to Write Hit Songs
(/) Slide Up  (\) Slide Down  (h) Hammer On  (p) Pull Off  (b) Bend (r) Release (v) Vibrato

Stave 1:

E|-----------------------|-------------------------|--
B|-----------------------|-------------------------|--
G|-----------------------|---------------3--3/5--5h|--
D|--5h6p5/3h5p3----------|--5h6p5/3h5p3------------|--
A|---------------5\6--3--|-------------------------|--
E|-----------------------|-------------------------|--

Stave 2:

E|------------------------------------------------------10--11--13--
B|----------------------------------------------11--13--------------
G|----------------------------------10--12--13----------------------
D|----------------------10--12--13----------------------------------
A|----------10--11--13----------------------------------------------
E|--11--13----------------------------------------------------------

Stave 3:

E|----------------------------------------------------------13--15--16--
B|----------------------------------------------13--15--16--------------
G|----------------------------------12--13--15--------------------------
D|----------------------12--13--15--------------------------------------
A|--------------13--15--------------------------------------------------
E|--13--15--16----------------------------------------------------------

Stave 4:

E|----------------------------------------------------------15--16--18--
B|----------------------------------------------15--16--18--------------
G|--------------------------------------15--17--------------------------
D|--------------------------15--17--18----------------------------------
A|--------------15--17--18----------------------------------------------
E|--15--16--18----------------------------------------------------------

Stave 5:

E|----------------------------------------------------------18--20--
B|----------------------------------------------18--20--21----------
G|----------------------------------17--19--20----------------------
D|----------------------17--18--20----------------------------------
A|----------17--18--20----------------------------------------------
E|--18--20----------------------------------------------------------

http://www.guitartabcreator.com
Guitar Tab Creator is intended to store guitar tab created through the tool. It currently does not support in-line text editing. Any text you place in here will be lost. If you need to comment on your tab, please use the "Tab Notes" section located below.