Sound will begin in 5 seconds

ESCALA DE G sus MAIOR

01234567891011121314151617181920212223
E
B
G
D
A
E
B
0 1 2 3 4 5 6 7 8 9 10 11 12 13 14 15 16 17 18 19 20 21 22 23
Song Science #1: How Pros Use 6 Chords to Write Hit Songs
(/) Slide Up  (\) Slide Down  (h) Hammer On  (p) Pull Off  (b) Bend (r) Release (v) Vibrato

Stave 1:

E|-18-18-16----16-18-20b21r20-20p18h20----------------16-18-20-20-18-18-16b18-16b18-16-
B|----------18-------------------------16b18-16b18-16----------------------------------
G|-------------------------------------------------------------------------------------
D|-------------------------------------------------------------------------------------
A|-------------------------------------------------------------------------------------
E|-------------------------------------------------------------------------------------

Stave 2:

E|-----------------------|-18-18-16-------------16-18-18b20-18-16-18-15-16-18-20-18-20-20b21-
B|-----------------------|----------18----16-18----------------------------------------------
G|-5-6-8/10-5-5----------|-------------17----------------------------------------------------
D|--------------8/10-8\6-|-------------------------------------------------------------------
A|-----------------------|-------------------------------------------------------------------
E|-----------------------|-------------------------------------------------------------------

Stave 3:

E|-20p18h20----------------|-------------18-------------------------------------13----------------------
B|----------16b18-16b18-16-|-16----16-18----18-16----16----16----------------13----16-13----------------
G|-------------------------|----17----------------17----17----17-15-13-15b17-------------15b17-15b17-13-
D|-------------------------|----------------------------------------------------------------------------
A|-------------------------|----------------------------------------------------------------------------
E|-------------------------|----------------------------------------------------------------------------

Stave 4:

E|-------------13-16-13-16-16-15-13----|-16-15-13-|-18-16-15-|-20-18-16-|-16-18-20b21-20-18-20-
B|-------13-16----------------------16-|----------|----------|----------|----------------------
G|-13-15-------------------------------|----------|----------|----------|----------------------
D|-------------------------------------|----------|----------|----------|----------------------
A|-------------------------------------|----------|----------|----------|----------------------
E|-------------------------------------|----------|----------|----------|----------------------

Stave 5:

E|----------------16-18-20-20-18-18-16b18-16b18-16----------------------------------
B|-16b18-16b18-16----------------------------------16b18-16b18-16-------------------
G|----------------------------------------------------------------15b17-15b17r15-13-
D|----------------------------------------------------------------------------------
A|----------------------------------------------------------------------------------
E|----------------------------------------------------------------------------------

http://www.guitartabcreator.com
Guitar Tab Creator is intended to store guitar tab created through the tool. It currently does not support in-line text editing. Any text you place in here will be lost. If you need to comment on your tab, please use the "Tab Notes" section located below.