Sound will begin in 5 seconds

ESCALA DE F MAIOR

01234567891011121314151617181920212223
E
B
G
D
A
E
B
0 1 2 3 4 5 6 7 8 9 10 11 12 13 14 15 16 17 18 19 20 21 22 23
Song Science #1: How Pros Use 6 Chords to Write Hit Songs
(/) Slide Up  (\) Slide Down  (h) Hammer On  (p) Pull Off  (b) Bend (r) Release (v) Vibrato

Stave 1:

E|----------------------------------------15-17-18-|-18b20-18-17-15-13-12h13p12----------------------
B|----------------------------------15-17----------|----------------------------15-13-15b17-15-13-15-
G|-------------------------14-15-17----------------|-------------------------------------------------
D|----------------14-15-17-------------------------|-------------------------------------------------
A|----------15-17----------------------------------|-------------------------------------------------
E|-15-17-18----------------------------------------|-------------------------------------------------

Stave 2:

E|-10-------------------------------------|----------------10-13/15-13----18-15-------15-------
B|----13-11-10----10----------------------|-------10-11-13-------------15-------18b20----18-15-
G|-------------12----12b14-12b14-12-10-12-|-10-12----------------------------------------------
D|----------------------------------------|----------------------------------------------------
A|----------------------------------------|----------------------------------------------------
E|----------------------------------------|----------------------------------------------------

Stave 3:

E|-------15-------18-17-15----------------------------------------------------|-
B|-18b20----18-15----------18-17-15-------------------------------------------|-
G|----------------------------------17-15-17b19-17b19-19-14h15p14----14-15-15-|-
D|----------------------------------------------------------------17----------|-
A|----------------------------------------------------------------------------|-
E|----------------------------------------------------------------------------|-

Stave 4:

E|-------15-------------15-------|-------------------------------------17----------
B|-18b20----18p15----------18p15-|-------18-20----18b20-18b20-------------18-18-18-
G|----------------17b19----------|-17/19-------19-------------19----17-------------
D|-------------------------------|-------------------------------------------------
A|-------------------------------|-------------------------------------------------
E|-------------------------------|-------------------------------------------------

http://www.guitartabcreator.com
Guitar Tab Creator is intended to store guitar tab created through the tool. It currently does not support in-line text editing. Any text you place in here will be lost. If you need to comment on your tab, please use the "Tab Notes" section located below.