Sound will begin in 5 seconds

ESCALA DE Em MELODICA

01234567891011121314151617181920212223
E
B
G
D
A
E
B
0 1 2 3 4 5 6 7 8 9 10 11 12 13 14 15 16 17 18 19 20 21 22 23
Song Science #1: How Pros Use 6 Chords to Write Hit Songs
(/) Slide Up  (\) Slide Down  (h) Hammer On  (p) Pull Off  (b) Bend (r) Release (v) Vibrato

Stave 1:

E|----------------------------------------11-12-14-|----------------------------------19-21b23-|-
B|----------------------------------12-14----------|-------------------------19-20-22----------|-
G|-------------------------11-12-14----------------|----------------18-20-21-------------------|-
D|----------------11-13-14-------------------------|----------19-21----------------------------|-
A|----------12-14----------------------------------|-19-21-22----------------------------------|-
E|-12-14-15----------------------------------------|-------------------------------------------|-

Stave 2:

E|----------------------------------------------------------------------------------------------------
B|----------------------------------------------------------------------------------------12-14/17b19-
G|----------------------------------------------------------11-12-14/18-20-21-20-18/14-12-------------
D|----------------------------------11-13-14/19-21-19\14-13-------------------------------------------
A|----------12-14/19-21-22-21-19\14-------------------------------------------------------------------
E|-12-14-15-------------------------------------------------------------------------------------------

http://www.guitartabcreator.com
Guitar Tab Creator is intended to store guitar tab created through the tool. It currently does not support in-line text editing. Any text you place in here will be lost. If you need to comment on your tab, please use the "Tab Notes" section located below.