Sound will begin in 5 seconds

ESCALA DE Em HARMONICA

01234567891011121314151617181920212223
E
B
G
D
A
E
B
0 1 2 3 4 5 6 7 8 9 10 11 12 13 14 15 16 17 18 19 20 21 22 23
Song Science #1: How Pros Use 6 Chords to Write Hit Songs
(/) Slide Up  (\) Slide Down  (h) Hammer On  (p) Pull Off  (b) Bend (r) Release (v) Vibrato

Stave 1:

E|------------------------------8-11/12-|----------------------------------------11-12-14\12-11-8-------
B|----------------------8-10-12---------|----------------------------------12-13------------------12-10-
G|---------------8-9-11-----------------|----------------------------12-14------------------------------
D|--------7-9-10------------------------|-------------------13-14-16------------------------------------
A|-7-9-10-------------------------------|----------12-14-15---------------------------------------------
E|--------------------------------------|-12-14-15------------------------------------------------------

Stave 2:

E|---------------------------7-8/11-12-14-------------------------------------------------------------
B|----------------------8-10--------------12-13-------------------------------------------------------
G|---------------8-9-11-------------------------12-14-------------------------------------------------
D|--------7-9-10--------------------------------------13-14-16-------------------------------------17-
A|-7-9-10------------------------------------------------------12-14-15-------------------18-19-21----
E|----------------------------------------------------------------------12-14-15/17-19-20-------------

http://www.guitartabcreator.com
Guitar Tab Creator is intended to store guitar tab created through the tool. It currently does not support in-line text editing. Any text you place in here will be lost. If you need to comment on your tab, please use the "Tab Notes" section located below.