Sound will begin in 5 seconds

ESCALA DE D SWEET CHILD

01234567891011121314151617181920212223
E
B
G
D
A
E
B
0 1 2 3 4 5 6 7 8 9 10 11 12 13 14 15 16 17 18 19 20 21 22 23
Song Science #1: How Pros Use 6 Chords to Write Hit Songs
(/) Slide Up  (\) Slide Down  (h) Hammer On  (p) Pull Off  (b) Bend (r) Release (v) Vibrato

Stave 1:

E|--------------------------------------------------------|-------------------------------------
B|--------------------------------------------------------|-15-14-12----12----------12----------
G|--------------------------------------11-12-14-12-11----|----------14----14-12-11----14-12-11-
D|------------------9-11-12/14-11-12-14----------------14-|-------------------------------------
A|-------9-10-12-12---------------------------------------|-------------------------------------
E|-10-12--------------------------------------------------|-------------------------------------

Stave 2:

E|-------------------------------------------------14-15-17-|----------------------------------------
B|----------------------------------------14-15-17----------|----------------------------17-19-20-22-
G|-14-12-11----12-11----------------14-16-------------------|-------------------16-18-19-------------
D|----------14-------14-12-14-16-17-------------------------|----------16-17-19----------------------
A|----------------------------------------------------------|-16-17-19-------------------------------
E|----------------------------------------------------------|----------------------------------------

Stave 3:

E|-------------------------------------------12-14-15-
B|----------------------------------12-14-15----------
G|-------------------------11-12-14-------------------
D|----------------11-12-14----------------------------
A|----------12-14-------------------------------------
E|-12-14-15-------------------------------------------

Stave 4:

E|-------------------------------------------14-15-17-
B|----------------------------------14-15-17----------
G|----------------------------14-16-------------------
D|-------------------14-16-17-------------------------
A|----------14-16-17----------------------------------
E|-14-15-17-------------------------------------------

Stave 5:

E|-------------------------------------------17-19-
B|----------------------------------17-19-20-------
G|-------------------------16-18-19----------------
D|----------------16-17-19-------------------------
A|-------16-17-19----------------------------------
E|-17-19-------------------------------------------

http://www.guitartabcreator.com
Guitar Tab Creator is intended to store guitar tab created through the tool. It currently does not support in-line text editing. Any text you place in here will be lost. If you need to comment on your tab, please use the "Tab Notes" section located below.