Sound will begin in 5 seconds

ESCALA DE Csus SIA

01234567891011121314151617181920212223
E
B
G
D
A
E
B
0 1 2 3 4 5 6 7 8 9 10 11 12 13 14 15 16 17 18 19 20 21 22 23
Song Science #1: How Pros Use 6 Chords to Write Hit Songs
(/) Slide Up  (\) Slide Down  (h) Hammer On  (p) Pull Off  (b) Bend (r) Release (v) Vibrato

Stave 1:

E|--------------------11p9p8----------------------|-------------------------------
B|------------------9--------9/11-9---------------|-------------------------------
G|-----------6-8-10-----------------11-10-8-------|----------10h11p10----10h11/13-
D|-------6-8--------------------------------11-11-|-10h11h13----------13----------
A|-6-8-9------------------------------------------|-------------------------------
E|------------------------------------------------|-------------------------------

Stave 2:

E|----------11-13p11-------------------------------------------13h14h16-18-16----------------------
B|-11-13-14----------14-13-11-------------------------13h14h16----------------19-18-16-19-18-16----
G|----------------------------13p11p10----------13h15-------------------------------------------18-
D|-------------------------------------13h15h16----------------------------------------------------
A|-------------------------------------------------------------------------------------------------
E|-------------------------------------------------------------------------------------------------

Stave 3:

E|----------------------------------------------11-13-14-
B|-------------------------------------11-13-14----------
G|----------------------------10-11-13-------------------
D|-------------------10-11-13----------------------------
A|-------------11-13-------------------------------------
E|-11-11-13-14-------------------------------------------

Stave 4:

E|-------------
B|-------------
G|-------------
D|-------------
A|----------12-
E|-12-13-15----

http://www.guitartabcreator.com
Guitar Tab Creator is intended to store guitar tab created through the tool. It currently does not support in-line text editing. Any text you place in here will be lost. If you need to comment on your tab, please use the "Tab Notes" section located below.