Sound will begin in 5 seconds

ARPEJOS TOM G G Em C D

01234567891011121314151617181920212223
E
B
G
D
A
E
B
0 1 2 3 4 5 6 7 8 9 10 11 12 13 14 15 16 17 18 19 20 21 22 23
Song Science #1: How Pros Use 6 Chords to Write Hit Songs
(/) Slide Up  (\) Slide Down  (h) Hammer On  (p) Pull Off  (b) Bend (r) Release (v) Vibrato

Stave 1:

E|-------------3-7-10-7------------|------------7-12-15------------------|-
B|-----------3----------8----------|----------8---------12---------------|-
G|---------4--------------7--------|--------9--------------12-9----------|-
D|-------5------------------9-7----|------9---------------------9--------|-
A|-----5------------------------10-|-7-10-------------------------10-9-7-|-
E|-3-7-----------------------------|-------------------------------------|-

Stave 2:

E|----------------8-12-15-12----------------|-------------------10-14-17-14----------------|-
B|--------------8------------13-------------|----------------10-------------15-------------|-
G|------------9-----------------12----------|-------------11-------------------14----------|-
D|---------10----------------------14-12----|----------12-------------------------16-14----|-
A|------10-------------------------------15-|-------12----------------------------------17-|-
E|-8-12-------------------------------------|-10-14----------------------------------------|-

Stave 3:

E|-
B|-
G|-
D|-
A|-
E|-

http://www.guitartabcreator.com
Guitar Tab Creator is intended to store guitar tab created through the tool. It currently does not support in-line text editing. Any text you place in here will be lost. If you need to comment on your tab, please use the "Tab Notes" section located below.