Sound will begin in 5 seconds

ARPEJOS DE Cm Dm Em Fsus m

01234567891011121314151617181920212223
E
B
G
D
A
E
B
0 1 2 3 4 5 6 7 8 9 10 11 12 13 14 15 16 17 18 19 20 21 22 23
Song Science #1: How Pros Use 6 Chords to Write Hit Songs
(/) Slide Up  (\) Slide Down  (h) Hammer On  (p) Pull Off  (b) Bend (r) Release (v) Vibrato

Stave 1:

E|--------------------8--11---------------------------------15--20--------------------------20--
B|-----------------8--------------------------------13--16------------------------------20------
G|-----------5--8-------------------------------12------------------------------17--20----------
D|--------5-----------------------------10--13------------------------------17------------------
A|--3--6----------------------------10------------------------------15--18----------------------
E|---------------------------8--11--------------------------------------------------------------

Stave 2:

E|----------------------10--13----------------------------------17--------------------------
B|------------------10----------------------------------15--18--------------------------22--
G|-----------7--10----------------------------------14--------------------------19--22------
D|--------7---------------------------------12--15--------------------------19--------------
A|--5--8--------------------------------12--------------------------17--20------------------
E|------------------------------10--13------------------------------------------------------

Stave 3:

E|--------------------------7-----------------------12--15----------------------------------19--
B|--------------------5--8----------------------12----------------------------------17--20------
G|-----------------4---------------------9--12----------------------------------16--------------
D|-----------2--5---------------------9---------------------------------14--17------------------
A|--------2--------------------7--10--------------------------------14--------------------------
E|--0--3----------------------------------------------------12--15------------------------------

Stave 4:

E|---------------------------9--14-------------------------14--17----------------------------------21--
B|--------------------7--10----------------------------14----------------------------------19--22------
G|-----------------6---------------------------11--14----------------------------------18--------------
D|-----------4--7--------------------------11----------------------------------16--19------------------
A|--------4-------------------------9--12----------------------------------16--------------------------
E|--2--5-----------------------------------------------------------14--17------------------------------

http://www.guitartabcreator.com
Guitar Tab Creator is intended to store guitar tab created through the tool. It currently does not support in-line text editing. Any text you place in here will be lost. If you need to comment on your tab, please use the "Tab Notes" section located below.