Sound will begin in 5 seconds

ARPEJOS DE C D E F

01234567891011121314151617181920212223
E
B
G
D
A
E
B
0 1 2 3 4 5 6 7 8 9 10 11 12 13 14 15 16 17 18 19 20 21 22 23
Song Science #1: How Pros Use 6 Chords to Write Hit Songs
(/) Slide Up  (\) Slide Down  (h) Hammer On  (p) Pull Off  (b) Bend (r) Release (v) Vibrato

Stave 1:

E|--------------------8--12---------------------------------15--------------------------20--
B|-----------------8--------------------------------13--17--------------------------20------
G|-----------5--9-------------------------------12--------------------------17--21----------
D|--------5-----------------------------10--14--------------------------17------------------
A|--3--7----------------------------10--------------------------15--19----------------------
E|---------------------------8--12----------------------------------------------------------

Stave 2:

E|----------------------10--14----------------------------------17--
B|------------------10----------------------------------15--19------
G|-----------7--11----------------------------------14--------------
D|--------7---------------------------------12--16------------------
A|--5--9--------------------------------12--------------------------
E|------------------------------10--14------------------------------

Stave 3:

E|-----------------------12--16----------------------------------19--
B|-------------------12----------------------------------17--21------
G|------------9--13----------------------------------16--------------
D|---------9---------------------------------14--18------------------
A|--7--11--------------------------------14--------------------------
E|-------------------------------12--16------------------------------

Stave 4:

E|---------------------------8--13-------------------------13--17----------------------------------20--
B|--------------------6--10----------------------------13----------------------------------18--22------
G|-----------------5---------------------------10--14----------------------------------17--------------
D|-----------3--7--------------------------10----------------------------------15--19------------------
A|--------3-------------------------8--12----------------------------------15--------------------------
E|--1--5-----------------------------------------------------------13--17------------------------------

http://www.guitartabcreator.com
Guitar Tab Creator is intended to store guitar tab created through the tool. It currently does not support in-line text editing. Any text you place in here will be lost. If you need to comment on your tab, please use the "Tab Notes" section located below.