Sound will begin in 5 seconds

ARPEJOS Bm G D A

01234567891011121314151617181920212223
E
B
G
D
A
E
B
0 1 2 3 4 5 6 7 8 9 10 11 12 13 14 15 16 17 18 19 20 21 22 23
Song Science #1: How Pros Use 6 Chords to Write Hit Songs
(/) Slide Up  (\) Slide Down  (h) Hammer On  (p) Pull Off  (b) Bend (r) Release (v) Vibrato

Stave 1:

E|-------------10-14p10----------------------7-10p7------------------2-5p2--------------------9-12-
B|----------12----------12-----------------8--------8--------------3-------3---------------10------
G|-------11----------------11------------7------------7----------2-----------2-----------9---------
D|----12----------------------12-------9----------------9------4---------------4------11-----------
A|-14----------------------------14\10--------------------10\5-------------------5/12--------------
E|-------------------------------------------------------------------------------------------------

Stave 2:

E|-------------10-14p10\7------------------2-5/12-9------------------------10-14p10----------
B|----------12------------8--------------3----------10------------------12----------12----12-
G|-------11-----------------7----------2---------------9-------------11----------------11----
D|----12----------------------9------4-------------------11-------12-------------------------
A|-14---------------------------10\5------------------------12/14----------------------------
E|-------------------------------------------------------------------------------------------

http://www.guitartabcreator.com
Guitar Tab Creator is intended to store guitar tab created through the tool. It currently does not support in-line text editing. Any text you place in here will be lost. If you need to comment on your tab, please use the "Tab Notes" section located below.