Sound will begin in 5 seconds

ARPEJO DE C e Cm

01234567891011121314151617181920212223
E
B
G
D
A
E
B
0 1 2 3 4 5 6 7 8 9 10 11 12 13 14 15 16 17 18 19 20 21 22 23
Song Science #1: How Pros Use 6 Chords to Write Hit Songs
(/) Slide Up  (\) Slide Down  (h) Hammer On  (p) Pull Off  (b) Bend (r) Release (v) Vibrato

Stave 1:

E|--8p3-----3h8/12p8-----8h12/15p12------12h15/20p15------15h20-----------------------------------------
B|-------5------------8--------------13---------------17------------------------------------------------
G|------------------------------------------------------------------------------------------------------
D|------------------------------------------------------------------2h5/10p5-----5h10/14p10------10h14--
A|---------------------------------------------------------------3------------7--------------10---------
E|------------------------------------------------------------------------------------------------------

Stave 2:

E|--8p3-----3h8/11p8-----8h11/15p11------11h15/20p15------15h20-----------------------------------------
B|-------4------------8--------------13---------------16------------------------------------------------
G|------------------------------------------------------------------------------------------------------
D|------------------------------------------------------------------1h5/10p5-----5h10/13p10------10h13--
A|---------------------------------------------------------------3------------6--------------10---------
E|------------------------------------------------------------------------------------------------------

Stave 3:

E|------------------8h12/15-------------------------------
B|---------------8-----------13h17------------------------
G|----------5h9---------------------17h21-----------------
D|-----2h5---------------------------------17-------------
A|--3------------------------------------------15h19------
E|----------------------------------------------------20--

http://www.guitartabcreator.com
Guitar Tab Creator is intended to store guitar tab created through the tool. It currently does not support in-line text editing. Any text you place in here will be lost. If you need to comment on your tab, please use the "Tab Notes" section located below.