Sound will begin in 5 seconds

ARPEJO Cm Eb Bb

01234567891011121314151617181920212223
E
B
G
D
A
E
B
0 1 2 3 4 5 6 7 8 9 10 11 12 13 14 15 16 17 18 19 20 21 22 23
Song Science #1: How Pros Use 6 Chords to Write Hit Songs
(/) Slide Up  (\) Slide Down  (h) Hammer On  (p) Pull Off  (b) Bend (r) Release (v) Vibrato

Stave 1:

E|-------------11-15p11-------------------------15-18p15-------------------------10-13p10-------------
B|----------13----------13-------------------16----------16-------------------11----------11----------
G|-------12----------------12-------------15----------------15-------------10----------------10-------
D|----13----------------------13-------17----------------------17-------12----------------------12----
A|-15----------------------------15/18----------------------------18\13----------------------------13-
E|----------------------------------------------------------------------------------------------------

Stave 2:

E|----------------11-15----20----15p11-------------------------15-18p15----------15\10-13----------10-
B|-------------13----------------------13-------------------16----------16----16----------11----11----
G|----------12----------------------------12-------------15----------------15----------------10-------
D|-------13----------------------------------13-------17----------------------------------------------
A|----15----------------------------------------15/18-------------------------------------------------
E|----------------------------------------------------------------------------------------------------

http://www.guitartabcreator.com
Guitar Tab Creator is intended to store guitar tab created through the tool. It currently does not support in-line text editing. Any text you place in here will be lost. If you need to comment on your tab, please use the "Tab Notes" section located below.