Sound will begin in 5 seconds

ARPEJO AUMENT E DMINUT

01234567891011121314151617181920212223
E
B
G
D
A
E
B
0 1 2 3 4 5 6 7 8 9 10 11 12 13 14 15 16 17 18 19 20 21 22 23
Song Science #1: How Pros Use 6 Chords to Write Hit Songs
(/) Slide Up  (\) Slide Down  (h) Hammer On  (p) Pull Off  (b) Bend (r) Release (v) Vibrato

Stave 1:

E|---------2-6-2---------------------------------14-18-14----------------------
B|-------3-------3----------------------------15----------15-------------------
G|-----3-----------3--------------------15-15----------------15----------------
D|---4---------------4------------12-16-------------------------16-12----------
A|-5-------------------5-------13-------------------------------------13-------
E|-----------------------10-14-------------------------------------------14-10-

Stave 2:

E|---------1-4-1------------------------------13-16-16-13----------------------
B|-------3-------3-------------------------15-------------15-------------------
G|-----1-----------1-----------------10-13-------------------13-10-------------
D|---3---------------3------------12-------------------------------12----------
A|-5-------------------5-------11-------------------------------------11-------
E|-----------------------10-13-------------------------------------------13-10-

Stave 3:

E|-
B|-
G|-
D|-
A|-
E|-

Stave 4:

E|-
B|-
G|-
D|-
A|-
E|-

http://www.guitartabcreator.com
Guitar Tab Creator is intended to store guitar tab created through the tool. It currently does not support in-line text editing. Any text you place in here will be lost. If you need to comment on your tab, please use the "Tab Notes" section located below.