Sound will begin in 5 seconds

ALWAYS TOM A

01234567891011121314151617181920212223
E
B
G
D
A
E
B
0 1 2 3 4 5 6 7 8 9 10 11 12 13 14 15 16 17 18 19 20 21 22 23
Song Science #1: How Pros Use 6 Chords to Write Hit Songs
(/) Slide Up  (\) Slide Down  (h) Hammer On  (p) Pull Off  (b) Bend (r) Release (v) Vibrato

Stave 1:

E|-------------------------------------------|-----------------------------------
B|-------------------------------------------|-----------------------------------
G|-------------------------------------------|-----------------4-4h6p4-----------
D|-6-6-6p4h6---6-6h9p6-7-7-7p6h7-4/6-6-9-6\4-|-6-6-6p4h6---6-6---------6-7-7-7-6-
A|-----------4-------------------------------|-----------4-----------------------
E|-------------------------------------------|-----------------------------------

Stave 2:

E|---------------------|---------------------------------------------------------|-
B|---------------------|-----------------------------------------7/9\7---9\7-----|-
G|---------------4-----|-6-6-6p4h6---9-9p8-8-8-6/8-9-9-8-9p8p6-9-------9-----9/9-|-
D|-7---4-4h6-6-6---6\4-|-----------6---------------------------------------------|-
A|---4-----------------|---------------------------------------------------------|-
E|---------------------|---------------------------------------------------------|-

Stave 3:

E|----------------------------------------------------------------------|-------------
B|-10b12r10-9-7/9-----------------10p9-9-9-10b12r10-9-9-5/7\5-7b9r7-7-7-|-9-9-9-9-9-9-
G|----------------9b11r9-11b13r11---------------------------------------|-------------
D|----------------------------------------------------------------------|-------------
A|----------------------------------------------------------------------|-------------
E|----------------------------------------------------------------------|-------------

Stave 4:

E|------------------------------------------------------------------------|-----------
B|-10p9-10b12-10p9-9-9-9-10p9-10b12-9-9-10p9---9-9-10p9---9-9\7-----7-----|-----------
G|-------------------------------------------9----------9-------7/9---9\6-|-----------
D|------------------------------------------------------------------------|-4/6-6\4/6-
A|------------------------------------------------------------------------|-----------
E|------------------------------------------------------------------------|-----------

Stave 5:

E|-----------------------------------------------------------------------
B|-----------------------------------------------------------------------
G|-----------------------------------------------------------------4-----
D|-6\4/6-6/9-6\4/6-6\4/6-6\4/6-6-6-6-7p6\2-6-6-7p6\2-6-6p4-4-2h4/6---6-4-
A|-----------------------------------------------------------------------
E|-----------------------------------------------------------------------

Stave 6:

E|--------------------------------------------------------------------
B|--------------------------------------------------------------------
G|--------------------------------------------------------------------
D|-4/6-6\4/6-6\4/6-6/9-6p4h6-6-6-9b11r9-6-6-6-7p6\2-6-6-7p6\2-2h4/6-4-
A|--------------------------------------------------------------------
E|--------------------------------------------------------------------

Stave 7:

E|-------------|--------------------------------------------------
B|-------------|--------------------------------------------------
G|-------4-----|----------------------9-9p8-6/8-6-8-8p6-8-9-9-8-6-
D|-2h4/6---6\4-|-7-9/11-9-11-7-7-9/11-----------------------------
A|-------------|--------------------------------------------------
E|-------------|--------------------------------------------------

Stave 8:

E|------------------------------------------|------------------------------------
B|-----------------9-9-7-7-5-7-9-9/10\9-7-5-|-10b12r10-9-7/9-5/7-5-7b9-7-7/9-9-9-
G|-9-8-6-9-8-6-6-9--------------------------|------------------------------------
D|------------------------------------------|------------------------------------
A|------------------------------------------|------------------------------------
E|------------------------------------------|------------------------------------

Stave 9:

E|------------------------------|-----------------------------------------------------------
B|-10b12r10-9-9-5/7\5-7b9r7p5-7-|------------9-10-10---------------------9-10-10/12-8-7b9r7-
G|------------------------------|-9/11-11-11---------7-7-7/9/11-9-9-9-11--------------------
D|------------------------------|-----------------------------------------------------------
A|------------------------------|-----------------------------------------------------------
E|------------------------------|-----------------------------------------------------------

Stave 10:

E|---------------------------------------------
B|-5--------------------8-8-8-7--------7-8-7h8p
G|---7-9/11-11-11-9-7-7---------7/9------------
D|---------------------------------------------
A|---------------------------------------------
E|---------------------------------------------

http://www.guitartabcreator.com
Guitar Tab Creator is intended to store guitar tab created through the tool. It currently does not support in-line text editing. Any text you place in here will be lost. If you need to comment on your tab, please use the "Tab Notes" section located below.