Skip to main content

Screaming To Survive

0 1 2 3 4 5 6 7 8 9 10 11 12 13 14 15 16 17 18 19 20 21 22 23
E
B
G
D
A
E
0 1 2 3 4 5 6 7 8 9 10 11 12 13 14 15 16 17 18 19 20 21 22 23
(/) Slide Up  (\) Slide Down  (h) Hammer On  (p) Pull Off  (b) Bend (r) Release (v) Vibrato

Introdução| Refrão | Primeira parte do solo

E|--------------------------------------------------------------------------------------------------------------------
B|--------------------------------------------------------------------------------------------------------------------
G|--6--6--6-----2--2--2-----4--4--4-----6--6--6-----6--6--6-----2--2--2-----4--4--4-----6--6--6-----------------------
D|--6--6--6-----2--2--2-----4--4--4-----6--6--6-----6--6--6-----2--2--2-----4--4--4-----6--6--6-----6--8--------------
A|--4--4--4-----0--0--0-----2--2--2-----4--4--4-----4--4--4-----0--0--0-----2--2--2-----4--4--4-----4--6--------------
E|--------------------------------------------------------------------------------------------------------------------

Verso

E|--------------------2-----------------------------------------2-----------
B|-----------4--------3--------2-----------------------4--------3--------2--
G|-----------4--------2--------2-----------------------4--------2--------2--
D|--2--------4-----------------2--------------2--------4-----------------2--
A|--2--------------------------------0--4-----2-----------------------------
E|--0-----------------------------------------0-----------------------------

Pré refrão

E|--------------------------------------------------------------------------
B|--------------------------------------------------------------------------
G|--4--------6--------4--------6--------4--------6--------7-----9-----------
D|--4--------6--------4--------6--------4--------6--------7--7--9-----------
A|--2--------4--------2--------4--------2--------4--------5--7--7-----------
E|-----------------------------------------------------------5--------------

Ponte | Baixo e depois a guita

E|--------------------------------------------------------------------------------------------------
B|--------------------------------------------------------------------------------------------------
G|--------------------------------------------------------------------------------------------------
D|--------------------------------------------------------------------------------------------------
A|-----0-----2--0--------------0--------3--2--0--------0-----2--0-----------0--------3--2--0--------
E|--2-----2--------2--------2-----2--------------0--2-----2--------2-----2-----2--------------0--2--

Base antes da dobra depois do solo

E|------------------------------------------------------------------------------------
B|--------------------------9--7---------------------------9--7-----------9-----7-----
G|--6-----------6-----4-----------9--8--9------------------------9--8--9--------------
D|--6-----6-----6-----4-----------------------10--------------------------------------
A|--4-----6-----4-----2---------------------------------------------------------------
E|--------4---------------------------------------------------------------------------

Dobra pt 2

E|----------------------------------------------------------------------------------------
B|--9--7-----------9--7-----10--9-----10b12--10b12--10--9--------9--7-----10--9-----10b---
G|--------9--8--9------------------------------------------9------------------------------
D|----------------------------------------------------------------------------------------
A|----------------------------------------------------------------------------------------
E|----------------------------------------------------------------------------------------

refrão variado

E|-----------------------------------------------
B|--5-----2-----4-----5-----5-----2-----4-----5--
G|--6-----2-----4-----6-----6-----2-----4-----6--
D|--6-----2-----4-----6-----6-----2-----4-----6--
A|--4-----0-----2-----4-----4-----0-----2-----4--
E|-----------------------------------------------

							https://www.guitartabcreator.com
Chords

Instruments
{"strings":[[[".","_","_","_","_","_","_","_","_","_","_","_","_","_","_","_","_","_","_","_","_","_","_","_","_","_","_","_","_","_","_","_","_","_","_","_","_","_"],[".","_","_","_","_","_","_","_","_","_","_","_","_","_","_","_","_","_","_","_","_","_","_","_","_","_","_","_","_","_","_","_","_","_","_","_","_","_"],[6,6,6,"_",2,2,2,"_",4,4,4,"_",6,6,6,"_",6,6,6,"_",2,2,2,"_",4,4,4,"_",6,6,6,"_","_","_","_","_","_","_"],[6,6,6,"_",2,2,2,"_",4,4,4,"_",6,6,6,"_",6,6,6,"_",2,2,2,"_",4,4,4,"_",6,6,6,"_",6,8,"_","_","_","_"],[4,4,4,"_",0,0,0,"_",2,2,2,"_",4,4,4,"_",4,4,4,"_",0,0,0,"_",2,2,2,"_",4,4,4,"_",4,6,"_","_","_","_"],["_","_","_","_","_","_","_","_","_","_","_","_","_","_","_","_","_","_","_","_","_","_","_","_","_","_","_","_","_","_","_","_","_","_","_","_","_","_"]],[[".","_","_","_","_","_",2,"_","_","_","_","_","_","_","_","_","_","_","_","_",2,"_","_","_"],[".","_","_",4,"_","_",3,"_","_",2,"_","_","_","_","_","_","_",4,"_","_",3,"_","_",2],[".","_","_",4,"_","_",2,"_","_",2,"_","_","_","_","_","_","_",4,"_","_",2,"_","_",2],[2,"_","_",4,"_","_","_","_","_",2,"_","_","_","_",2,"_","_",4,"_","_","_","_","_",2],[2,"_","_","_","_","_","_","_","_","_","_",0,4,"_",2,"_","_","_","_","_","_","_","_","_"],[0,"_","_","_","_","_","_","_","_","_","_","_","_","_",0,"_","_","_","_","_","_","_","_","_"]],[[".","_","_","_","_","_","_","_","_","_","_","_","_","_","_","_","_","_","_","_","_","_","_","_"],["_","_","_","_","_","_","_","_","_","_","_","_","_","_","_","_","_","_","_","_","_","_","_","_"],[4,"_","_",6,"_","_",4,"_","_",6,"_","_",4,"_","_",6,"_","_",7,"_",9,"_","_","_"],[4,"_","_",6,"_","_",4,"_","_",6,"_","_",4,"_","_",6,"_","_",7,7,9,"_","_","_"],[2,"_","_",4,"_","_",2,"_","_",4,"_","_",2,"_","_",4,"_","_",5,7,7,"_","_","_"],[".","_","_","_","_","_","_","_","_","_","_","_","_","_","_","_","_","_","_",5,"_","_","_","_"]],[[".","_","_","_","_","_","_","_","_","_","_","_","_","_","_","_","_","_","_","_","_","_","_","_","_","_","_","_","_","_","_","_"],[".","_","_","_","_","_","_","_","_","_","_","_","_","_","_","_","_","_","_","_","_","_","_","_","_","_","_","_","_","_","_","_"],[".","_","_","_","_","_","_","_","_","_","_","_","_","_","_","_","_","_","_","_","_","_","_","_","_","_","_","_","_","_","_","_"],[".","_","_","_","_","_","_","_","_","_","_","_","_","_","_","_","_","_","_","_","_","_","_","_","_","_","_","_","_","_","_","_"],[".",0,"_",2,0,"_","_","_","_",0,"_","_",3,2,0,"_","_",0,"_",2,0,"_","_","_",0,"_","_",3,2,0,"_","_"],[2,"_",2,"_","_",2,"_","_",2,"_",2,"_","_","_","_",0,2,"_",2,"_","_",2,"_",2,"_",2,"_","_","_","_",0,2]],[[".","_","_","_","_","_","_","_","_","_","_","_","_","_","_","_","_","_","_","_","_","_","_","_","_","_","_"],[".","_","_","_","_","_","_","_",9,7,"_","_","_","_","_","_","_","_",9,7,"_","_","_",9,"_",7,"_"],[6,"_","_","_",6,"_",4,"_","_","_",9,8,9,"_","_","_","_","_","_","_",9,8,9,"_","_","_","_"],[6,"_",6,"_",6,"_",4,"_","_","_","_","_","_","_",10,"_","_","_","_","_","_","_","_","_","_","_","_"],[4,"_",6,"_",4,"_",2,"_","_","_","_","_","_","_","_","_","_","_","_","_","_","_","_","_","_","_","_"],[".","_",4,"_","_","_","_","_","_","_","_","_","_","_","_","_","_","_","_","_","_","_","_","_","_","_","_"]],[[".","_","_","_","_","_","_","_","_","_","_","_","_","_","_","_","_","_","_","_","_","_","_","_","_","_","_","_","_","_"],[9,7,"_","_","_",9,7,"_",10,9,"_",10,"b",12,10,"b",12,10,9,"_","_",9,7,"_",10,9,"_",10,"b","_"],[".","_",9,8,9,"_","_","_","_","_","_","_","_","_","_","_","_","_","_",9,"_","_","_","_","_","_","_","_","_","_"],[".","_","_","_","_","_","_","_","_","_","_","_","_","_","_","_","_","_","_","_","_","_","_","_","_","_","_","_","_","_"],[".","_","_","_","_","_","_","_","_","_","_","_","_","_","_","_","_","_","_","_","_","_","_","_","_","_","_","_","_","_"],[".","_","_","_","_","_","_","_","_","_","_","_","_","_","_","_","_","_","_","_","_","_","_","_","_","_","_","_","_","_"]],[[".","_","_","_","_","_","_","_","_","_","_","_","_","_","_"],[5,"_",2,"_",4,"_",5,"_",5,"_",2,"_",4,"_",5],[6,"_",2,"_",4,"_",6,"_",6,"_",2,"_",4,"_",6],[6,"_",2,"_",4,"_",6,"_",6,"_",2,"_",4,"_",6],[4,"_",0,"_",2,"_",4,"_",4,"_",0,"_",2,"_",4],[".","_","_","_","_","_","_","_","_","_","_","_","_","_","_"]]],"numberofstrings":6,"notes":["E","B","G","D","A","E","B"],"capo":0,"stringnotes":["E4","B3","G3","D3","A2","E2"],"comments":["Introdução| Refrão | Primeira parte do solo","Verso","Pré refrão","Ponte | Baixo e depois a guita","Base antes da dobra depois do solo","Dobra pt 2","refrão variado"],"timing":[["W","W","W","W","W","W","W","W","W","W","W","W","W","W","W","W","W","W","W","W","W","W","W","W","W","W","W","W","W","W","W","W","W","W","W","W","W","W"],["W","W","W","W","W","W","W","W","W","W","W","W","W","W","W","W","W","W","W","W","W","W","W","W","W"],["W","W","W","W","W","W","W","W","W","W","W","W","W","W","W","W","W","W","W","W","W","W","W","W"],["W","W","W","W","W","W","W","W","W","W","W","W","W","W","W","W","W","W","W","W","W","W","W","W","W","W","W","W","W","W","W","W","W"],["W","W","W","W","W","W","W","W","W","W","W","W","W","W","W","W","W","W","W","W","W","W","W","W","W","W","W","W"],["W","W","W","W","W","W","W","W","W","W","W","W","W","W","W","W","W","W","W","W","W","W","W","W","W","W","W","W","W","W","W"],["W","W","W","W","W","W","W","W","W","W","W","W","W","W","W","W"]],"timingvisible":false,"tabcounter":15,"stave":6,"totalstaves":7,"instrument":"6guitar","selectedtuning":"6_standard","version":"13"}
Submitted by rellygator on