Sound will begin in 5 seconds

sos

Chords
01234567891011121314151617181920212223
E
B
G
D
A
E
B
0 1 2 3 4 5 6 7 8 9 10 11 12 13 14 15 16 17 18 19 20 21 22 23
Song Science #1: How Pros Use 6 Chords to Write Hit Songs
(/) Slide Up  (\) Slide Down  (h) Hammer On  (p) Pull Off  (b) Bend (r) Release (v) Vibrato

Stave 1:

E|-----------------------------------------------------------------------------------------------------
B|-----------------------------------------------------------------------------------------------------
G|-----------------------------------------------------------------------------------------------------
D|-----------------------------------------------------------------------------------------------------
A|-----------------------------------------2--------------3--------2-----------------------------------
E|--0--0--0--0--0--0--0--0-----0--0--0--0--0--0--0--0--0--1--0--0--0--0--0--0--2--2--2--2--1--1--1--1--

Stave 2:

E|--------------------------------------------------------------------------
B|--------------------------------------------------------------------------
G|--------------------------------------------------------------------------
D|--------------------------------------------------------------------------
A|--------------2--------------5--------2-----------------------------------
E|--0--0--0--0--0--0--0--0--0--3--0--0--0--0--0--0--4--4--4--4--3--3--3--3--

Stave 3:

E|--
B|--
G|--
D|--
A|--
E|--

Stave 4:

E|-----------------------------------------------------------------------------------------
B|-----------------------------------------------------------------------------------------
G|-----------------------------------------------------------------------------------------
D|-----------------------------------------------------------------------------------------
A|--------------2--------------5--------2--------------------------2--------7--6--5--4--2--
E|--0--0--0--0--0--0--0--0--0--3--0--0--0--------------0--0--0--0--0--------5--4--3--2--0--

Stave 5:

E|-----------------------------------------
B|-----------------------------------------
G|-----------------------------------------
D|-----------------------------------------
A|--------------------2-----9--7--5--4--2--
E|--0--0--0--0--0--0--0-----7--5--3--2--0--

Stave 6:

E|---------------------------------------------------------
B|---------------------------------------------------------
G|---------------------------------------------------------
D|---------------------------------------------------------
A|--------------------2--------10--9-----9--7--6--5--x--2--
E|--0--0--0--0--0--0--0--------8---7-----7--5--4--3--2--0--

http://www.guitartabcreator.com
Guitar Tab Creator is intended to store guitar tab created through the tool. It currently does not support in-line text editing. Any text you place in here will be lost. If you need to comment on your tab, please use the "Tab Notes" section located below.