Sound will begin in 5 seconds

guitar 2

01234567891011121314151617181920212223
E
B
G
D
A
E
B
0 1 2 3 4 5 6 7 8 9 10 11 12 13 14 15 16 17 18 19 20 21 22 23
Song Science #1: How Pros Use 6 Chords to Write Hit Songs
(/) Slide Up  (\) Slide Down  (h) Hammer On  (p) Pull Off  (b) Bend (r) Release (v) Vibrato

Stave 1:

E|------------------------------------------------------------------------------------------------------
B|------------------------------------------------------------------------------------------------------
G|------------------------------------------------------------------------------------------------------
D|------------------------9--11--9--11---------------------9--11--9--9--------------------9--11--9--11--
A|------------9p9p11--11---------------------------9p9p11-------------------------9p9p11----------------
E|--9p9p11p11p--------------------------9p9p11p11-----------------------9p9p11p11p----------------------

Stave 2:

E|---------------------------------------------------------------------------------------
B|---------------------------------------------------------------------------------------
G|---------------------------------------------------------------------------------------
D|--------------------9--11--9--7-----------------7--9--7--9-----------------7--9--7--7--
A|------------9p9p11-----------------------7p7p9----------------------7p7p9--------------
E|--9p9p11p11p---------------------7p7p9p9p-------------------7p7p9p9p-------------------

Stave 3:

E|--------------------------------------------------------
B|--------------------------------------------------------
G|-----------------------------------------------------5--
D|-----------------7--9--7--9-----------------7--9--7-----
A|----------7p7p9----------------------7p7p9--------------
E|--7p7p9p9p-------------------7p7p9p9p-------------------

http://www.guitartabcreator.com
Guitar Tab Creator is intended to store guitar tab created through the tool. It currently does not support in-line text editing. Any text you place in here will be lost. If you need to comment on your tab, please use the "Tab Notes" section located below.