Sound will begin in 5 seconds

Guitar Club Practice Tabs

Chords
01234567891011121314151617181920212223
E
B
G
D
A
E
B
0 1 2 3 4 5 6 7 8 9 10 11 12 13 14 15 16 17 18 19 20 21 22 23
(/) Slide Up  (\) Slide Down  (h) Hammer On  (p) Pull Off  (b) Bend (r) Release (v) Vibrato

Stave 1:

E|--------------------------------------------------
B|--13--12--5-----13--12--5--8-----13--12--5-----6--
G|--------------------------------------------------
D|--------------------------------------------------
A|--------------------------------------------------
E|--------------------------------------------------

Stave 2:

E|--0-----0-----3-----0--
B|--1-----1-----0-----1--
G|--0-----0-----0-----2--
D|--2-----2-----0-----3--
A|--3-----0-----2--------
E|--------------3--------

Stave 3:

E|--------------------------------------------------
B|--------------------------------------------------
G|--------------------------------------------------
D|--------------------------------------------------
A|-----5--5--7--7--10--9--10--9--10--9--5--5--7--7--
E|--7-----------------------------------------------

Stave 4:

E|-----------------------------------------------
B|-----------------------------------------------
G|-----------------------------------------------
D|-----------------------------------------------
A|--2--------1-----------2--0--------0-----------
E|--------------2-----------------------0-----2--

Stave 5:

E|------------------------------
B|------------------------------
G|--7v-----7v-----6v-----4v-----
D|------------------------------
A|------------------------------
E|------------------------------

Stave 6:

E|--------------------------
B|--------------------------
G|--------------------------
D|--------------------------
A|-----9-----4-----7-----2--
E|-----7-----2-----5-----0--

Stave 7:

E|----------------------------------------------------------------------------------
B|----------------------------------------------------------------------------------
G|----------------------------------------------------------------------------------
D|----------------------------------------------------------------------------------
A|--9--9--9-----9--9-----7--7--7-----7--7-----12--12--12-----12--12--2--2--2-----2--
E|--7--7--7-----7--7-----5--5--5-----5--5-----10--10--10-----10--10--0--0--0-----0--

http://www.guitartabcreator.com
Guitar Tab Creator is intended to store guitar tab created through the tool. It currently does not support in-line text editing. Any text you place in here will be lost. If you need to comment on your tab, please use the "Tab Notes" section located below.