Sound will begin in 5 seconds

Feathers

Chords
01234567891011121314151617181920212223
E
B
G
D
A
E
B
0 1 2 3 4 5 6 7 8 9 10 11 12 13 14 15 16 17 18 19 20 21 22 23
Song Science #1: How Pros Use 6 Chords to Write Hit Songs
(/) Slide Up  (\) Slide Down  (h) Hammer On  (p) Pull Off  (b) Bend (r) Release (v) Vibrato

Stave 1:

E|-----------------------------------------------------------------
B|-----------------------------------------------------------------
G|-----------------------------------------------------------------
D|------12v---------10/12-----10\9\7v-----7/9--9-----9b10-----r9v--
A|--10-------10-----------------------------------9----------------
E|-----------------------------------------------------------------

Stave 2:

E|------------------------------------------------------------------
B|------------------------------------------------------------------
G|--------------------------9--11-----11b12r11-----9h11/12----------
D|------12v-------------12-------------------------------------10v--
A|--10-------10-----10--------------------------------------9-------
E|------------------------------------------------------------------

Stave 3:

E|----------------------------------
B|----------------------------------
G|--------4--------------4/5-----5--
D|-----5--------5--------5-------5--
A|--7--------------7----------------
E|----------------------------------

Stave 4:

E|-----------------0--
B|--------------5-----
G|--------4-----------
D|-----5--------------
A|--3-----------------
E|--------------------

Stave 5:

E|----------------------------------
B|----------------------------------
G|--------4--------------4/5-----5--
D|-----5--------5--------5-------5--
A|--7--------------7----------------
E|----------------------------------

Stave 6:

E|----------------------------
B|-----------------0----------
G|-----------2--------2p0-----
D|-----4--4----------------4--
A|--3-------------------------
E|----------------------------

Stave 7:

E|-----
B|-----
G|--0--
D|--2--
A|-----
E|-----

http://www.guitartabcreator.com
Guitar Tab Creator is intended to store guitar tab created through the tool. It currently does not support in-line text editing. Any text you place in here will be lost. If you need to comment on your tab, please use the "Tab Notes" section located below.