Sound will begin in 5 seconds

THE CLARINET GUITAR AND TRUMPET SONG

01234567891011121314151617181920212223
E
B
G
D
A
E
B
0 1 2 3 4 5 6 7 8 9 10 11 12 13 14 15 16 17 18 19 20 21 22 23
(/) Slide Up  (\) Slide Down  (h) Hammer On  (p) Pull Off  (b) Bend (r) Release (v) Vibrato

NORMAL BIT 1

E|-----------------------------------------
B|-----------------------------------------
G|--------------------------------3--0--1--
D|--------0--2--1--------0--1--2-----------
A|--0--1-----------0--1--------------------
E|-----------------------------------------

SOLO

E|-------------------------------------------------
B|-------------------------------------------------
G|--12--12--10--12--8-----12--12--10--8--10--------
D|-------------------------------------------------
A|-------------------------------------------------
E|-------------------------------------------------

NORMAL BIT 2

E|-----------------------------------------
B|-----------------------------------------
G|--------------------------------3--0--1--
D|--------0--2--1--------0--1--2-----------
A|--0--1-----------0--1--------------------
E|-----------------------------------------

http://www.guitartabcreator.com
Guitar Tab Creator is intended to store guitar tab created through the tool. It currently does not support in-line text editing. Any text you place in here will be lost. If you need to comment on your tab, please use the "Tab Notes" section located below.