Sound will begin in 5 seconds

New song 2j

Chords
01234567891011121314151617181920212223
E
B
G
D
A
E
B
0 1 2 3 4 5 6 7 8 9 10 11 12 13 14 15 16 17 18 19 20 21 22 23
Song Science #1: How Pros Use 6 Chords to Write Hit Songs
(/) Slide Up  (\) Slide Down  (h) Hammer On  (p) Pull Off  (b) Bend (r) Release (v) Vibrato

Stave 1:

E|-----------------------------------------------------------------
B|-----------------------------------------------------------------
G|-6---------------6---------------6---------------5-4------7-10-7-
D|---5---------------5---------------5-----------------------------
A|-4---------------4---------------4---------------3-2-0----5-8--5-
E|-----0----0-0--------0----0-0--------3----3-4--------------------

Stave 2:

E|----------------------------------------------------------------
B|----------------------------------------------------------------
G|----------------------------------------------------------------
D|------------------------------------------------------------2---
A|-4-5-------------4-5-------------3-2----------------------------
E|-----0----0-0--------0----0-0--------3----3-4----5-3-0----0---0-

Stave 3:

E|--------------------------------------------------------------------
B|--------------------------------------------------------------------
G|--------------------------------------------------------------------
D|--------------------------------------------------------------------
A|-5-----6-------3------5-----6-------3-------------------5-----6---3-
E|---0-3---4-5-6---0------3-4---4-5-6-----------------------3-4---4---

Stave 4:

E|---------------------------------------------------
B|---------------------------------------------------
G|-6-7--------------------14-14-14-14-12-------------
D|-----0----0----------------------------0----0----0-
A|-4-5-0----0-------------12-12-12-12-10-0----0----0-
E|-----0----0----------------------------0----0----0-

Stave 5:

E|-10-13-------
B|-------13-12-
G|-------------
D|-------------
A|-------------
E|-------------

Stave 6:

E|------------------------------------
B|------------------------------------
G|-7-------7-------5-------5----------
D|-7-------7-------5-------5----------
A|-5-------6-------3-------3----------
E|-0-------6-------3-------4----1-1-1-

Stave 7:

E|-------------------------------------------------------------
B|-------------------------------------------------------------
G|-------------------------------------------------------------
D|-------------------------------------------------------------
A|-10-----10-----8-----8-----9-------7-----7-----3-----3-----2-
E|----0-0----0-0---0-0---0-0-----------0-0---0-0---0-0---0-0---

Stave 8:

E|-
B|-
G|-
D|-
A|-
E|-

http://www.guitartabcreator.com
Guitar Tab Creator is intended to store guitar tab created through the tool. It currently does not support in-line text editing. Any text you place in here will be lost. If you need to comment on your tab, please use the "Tab Notes" section located below.