Sound will begin in 5 seconds

driftin blues

Chords
01234567891011121314151617181920212223
E
B
G
D
A
E
B
0 1 2 3 4 5 6 7 8 9 10 11 12 13 14 15 16 17 18 19 20 21 22 23
Song Science #1: How Pros Use 6 Chords to Write Hit Songs
(/) Slide Up  (\) Slide Down  (h) Hammer On  (p) Pull Off  (b) Bend (r) Release (v) Vibrato

Stave 1:

E|--------------------------------------------------------------------------------------------------------0--------------
B|-----------------------------3--3--3-----3-----3--------------------------------------------------------0--------------
G|-----------------------------4--2--4--0--2--0-----2--0h2p0-----2-----0-------------------------------1-----------------
D|-----------0------------------------------------------------2-----2-----2--0h2p0-----0---------------2-----------------
A|--0--1--2-----0h1p0---------------------------------------------------------------2-----0h1p0--------------------------
E|---------------------3--0----------------------------------------------------------------------3--0--------------------

Stave 2:

E|-----------3b0--------0--3--3--3--3--3--3br0--------0---------------0---------------------------0-------0-----0--------0-------0-------------------------------------------
B|----------------0--2--------------------------0--2-----0---------0---------------------------------------------------------------------------------------0-----------------
G|-------------------------------------------------------------/4--------4/2--0-----2-----0h1--------0h1-----2--------2-----0h1----------------------2--2--2-----------------
D|--------2----------------------------------------------------------------------2-----2-------2-------2-----2--------2-------2----------------------1--1--1--------2--------
A|--------0------------------------------------------------------------------------------------2-------2-----4--------3-------2----------0--1--2--------2--2--------0--------
E|--0--3------------------------------------------------------------------------------------------0----------------0-----------------/5-----------3-----------0--3-----------

Stave 3:

E|--/7--6--5-----5-------------------------------------------------------------------------------------
B|------------8-----8--5--8--5-----5-------------------------------------------------------------------
G|------------------------------7-----7/9--7-----------------------------------------------------------
D|--------------------------------------------9/7--5-----7-----5---------------------2--2--------------
A|----------------------------------------------------7-----7-----7--5------------------0--------------
E|----------------------------------------------------------------------7/3r0--3--0--------------------

Stave 4:

E|--0--0-----0--0-----0--0-----0-----------------------------------------------------------------------
B|-----------------------------------0-----0--0--------------------------------------------------------
G|--------------------------------------2--------------------------------------------------------------
D|-----------------------------------------------------------------------------------------------------
A|--5--5-----4--4-----3--3-----2--2--------------------------------------------------------------------
E|-----------------------------------------------------------------------------------------------------

Stave 5:

E|-----------------------------------------------------------------------------------------0--0-----0--0-----------
B|------------------------------------------------------------3--3--3--3--3--3-------------0--0--3--0--0-----------
G|------------------------------------------------------------4--4--4--4--4--4--4/2--0-----------------------------
D|-------------------------0-----2--2--4--4--2--4--2------------------------------------2--------------------------
A|--2--2--2/4--4--2--2--4-----0--0--0--0--0--0--0--0---------------------------------------------------------------
E|--0--0--0-0--0--0--0--0-----------------------------0------------------------------------------------------------

Stave 6:

E|----------------------------------------------------------------------------------0--0-----0--0--------
B|----------------------------------------------------------------------------------0--0--3--0--0--------
G|-------------------------------------------------------------------------------------------------------
D|--2--2-------2--5--5--2-------2--2--x--x--0h1--0--1--2--0--------------------2-----------------------
A|--0--0---/4---------------/4-----0--x--x---------------------2--1--0-----------------------------------
E|----------------------------------------------------------------------3--0-----------------------------

Stave 7:

E|-----------------------------------------------0--------0--------0-----------------0-----------------------------------------
B|-----------0--0--0--0-----------------------------0--------0--------0-----0--0--------0--------------------------------------
G|--------2--2--2--2--2-----------------------1--------2--------3--------4--2-----2--------------------------------------------
D|--------1--1--1--1--1-----2--2--x--x--x--1--2--------3--------4--------5-----------------------------------------------------
A|--------2--2--2--2--2-----0--0--x--x--x-----2--------3--------4--------5--2--------------------------------------------------
E|--0--3-----------------3-----------------------------------0-----------------------------------------------------------------

Stave 8:

E|-----------------------------------------------------------------_--------------------------0-------0--0---------------------
B|----3--3--3--3--3--3--3---------------------------------------8--10r---8-----8--10--8-------------0--3-----4/2--0-----------
G|----4--4--4--4--4--4--4--4/2--0-----------------------0---/9-----_-------9------------9------/4---------------------2--------
D|---------------------------------2-----2--2-----2--2-------------_-----------------------------------------------------------
A|---------------------------------------0--0-----0--0-------------_-----------------------------------------------------------
E|--0--------------------------------------------------------------_-----------------------0-----------------------------------

Stave 9:

E|-----------------------------------------------------0--------------0----------------0--0-----0--0--------------------------------------------------------
B|--------------------------------------------------------------0--3-----0-------------0--0--3--0--0--------------------------------------------------------
G|-----------------------2-----2-----------------0--------3--4--------------4/2--0--------------------------------------------------------------------------
D|--2--2--------2-----5--------2--2--2--------2-------------------------------------2-----------------------------------------------------------------------
A|--0--0-----0--0--0--------0-----0--0-----0--0-------------------------------------------------------------------------------------------------------------
E|--------------------------------------------------0-------------------------------------------------------------------------------------------------------

Stave 10:

E|-----------------------------------------0--3b0--3b-------0--------0----------------------------------------------------------------------------------
B|-----------0--0--0---------------------------------3b0-----0----------------0-----0--0--------------------------------------------------------------
G|--------2--2--2--2----------------------------------------------2------h1--2-----2--------------------------------------------------------------------
D|--------1--1--1--1--------2--2--4--2----------------------------------2----0--------------------------------------------------------------------------
A|--------2--2--2--2--------0--0--0--0----------------------------------2----2--------------------------------------------------------------------------
E|--0--3--------------0--3--------------0---------------------------------------------------------------------------------------------------------------

Stave 11:

E|-----------------------------------------------0--_-----------------------------------------------------------------
B|---------8--10b---8----------------------8--10b---10-----8--10--8--8-------------------------------------------------
G|--/7--9------------------------------/9-----------_--9---------------9--7-------------------------------------------
D|--------------------------------------------------_------------------------9/7--5-----------------------------------
A|---------------------2--4--4--2--2--4-------------_-----------------------------------------------------------------
E|---------------------0--0--0--0--0--0-------------_--------------------------------0--------------------------------

Stave 12:

E|----------0--------0----------------0--0-----0-----------------3b3b0--------0--3b0-----3b0-----3b3b---5--3h5p3-----
B|----0--0--0--3--0--3----------------0--0--3--0--3-----0--3--0---------0--3----------3-------3----------------------
G|---/4--4--4--4--4--4--4/2--0---------------------------------------------------------------------------------------
D|------------------------------2------------------------------------------------------------------------------------
A|-------------------------------------------------------------------------------------------------------------------
E|---------------------------------0---------------------------------------------------------------------------------

Stave 13:

E|--------0-----------------0----------------0----------------------------------------------------------
B|--5-----3h5--3---------0-----------------------------------------------------------8b---8b------------
G|----------------4/-/4--------4/2--0------------------------------2--4--2-----------7----7-------------
D|-------------------------------------2----------------2-----4/5-----------4--2-----6----6-------------
A|--------------------------------------------------/5-------------------------------7----7-------------
E|----------------------------------------0--------0------------------------------0----0----0--0--------

Stave 14:

E|----------------------------------------------------------------------------------------0--------
B|-----------0-----0-------0--3--5--5/7--3--0------------------------------------------------------
G|--------------2------/4--------------------------------------------------------------2-----------
D|---------------------------------------------------------0--2--4--2--0---------------1-----------
A|--0--1--2------------------------------------------0--2-----------------0h1p0--------------------
E|---------------------------------------------3--3------------------------------3--0--------------

Stave 15:

E|--0--0-----0--0-----0--0-----0--0--------------0--0-----0-----------------
B|--------------------------------------0-----0--0--0-----------------------
G|-----------------------------------------2--------------------------------
D|--------------------------------------------------------------------------
A|--5--5-----4--4-----3--3-----2--2-----------------------------------------
E|-----------------------------------------------------0--------------------

Stave 16:

E|--10--10--10--10--10--10--10--10-12--12--12--12--12--12--15--12--15--12------_-------------------------------------------
B|--12--12--12--12--12--12--12--12-14--14--14--14--------------------------12--_-------------------------------------------
G|-----------------------------------------------------------------------------14--14p12----------8--10bp8------------------
D|-----------------------------------------------------------------------------_---------14/-/9------------9/7p5-----------
A|-----------------------------------------------------------------------------_----------------------------------7--------
E|-----------------------------------------------------------------------------_-------------------------------------0-----

Stave 17:

E|--7--7--7--7--7--7-----------7--7--5-----------0-----------5h6p5-----5-----------------------------------------------------------------------------
B|--8--8--8--8--8--8--------------------8--5--5---------------------8-----8--5-----5--8--5-----------------------------------------------------------
G|--7--7--7--7--7--7------------------------------------------------------------7--------------------------------------------------------------------
D|--------------------------2-----------------------------2------------------------------------------------------------------------------------------
A|--------------------------0-----------------------------0------------------------------------------------------------------------------------------
E|--------------------0--3--------------------------0--3---------------------------------------------------------------------------------------------

Stave 18:

E|-----------------------------------------------------------------------------------------------------------------
B|-----------------------------------------------------------------------------------------------------------------
G|-----------------------------------------------------------------------------------------------------------------
D|-----------------------------------------------------------------------------------------------------------------
A|-----------------------------------------------------------------------------------------------------------------
E|-----------------------------------------------------------------------------------------------------------------

http://www.guitartabcreator.com
Guitar Tab Creator is intended to store guitar tab created through the tool. It currently does not support in-line text editing. Any text you place in here will be lost. If you need to comment on your tab, please use the "Tab Notes" section located below.