Sound will begin in 5 seconds

20150904 riffs

Chords
01234567891011121314151617181920212223
E
B
G
D
A
E
B
0 1 2 3 4 5 6 7 8 9 10 11 12 13 14 15 16 17 18 19 20 21 22 23
Song Science #1: How Pros Use 6 Chords to Write Hit Songs
(/) Slide Up  (\) Slide Down  (h) Hammer On  (p) Pull Off  (b) Bend (r) Release (v) Vibrato

Stave 1:

E|---------------------------------------0-------------------
B|--------------------------------------------0--------------
G|----7----7----7----9----7----7----7--------------0---------
D|----6----6----6----6----6----6----6-------------------0----
A|----5----5----5----5----5----5----5------------------------
E|----0----0----0----0----0----0----0------------------------

Stave 2:

E|-----------------------------------------------------------------------------------------
B|-----------------------------------------------------------------------------------------
G|----7----7----7----9----7----7----7----7----7----7----7----7----5----5----5----7----5----
D|----0----0----0----0----0---------------------------------------0----0----0----0----0----
A|----5----5----5----5----5---------------------------------------3----3----3----3----3----
E|----6----6----6----6----6---------------------------------------4----4----4----4----4----

Stave 3:

E|----------------------------------------------------------------------------------------------------0----
B|-------7------------------7----7--------------------------------------------------------------------0----
G|-------6----------7-------6----6-------7-------9----9----9----9----9----9----9----9----9----9-------0----
D|-------5----------6-------5----5-------6-------8----------------------------------------------------0----
A|------------------5--------------------5-------7----------------------------------------------------0----
E|----------------------------------------------------------------------------------------------------0----

Stave 4:

E|----2-------------------------1------------------------------------------------------------------------------------------
B|----1---------------------------------------------------2---------------2----2---------------3-------------5-------------
G|----2-----------------------------------------------------------1--------------------1-------3-------------5-------------
D|--------------------------------------------------------2---------------2----2---------------2-------------4-------------
A|------------------------------2---------------------------------2--------------------2-------3-------------5-------------
E|------------------------------3------------------------------------------------------------------------------------------

http://www.guitartabcreator.com
Guitar Tab Creator is intended to store guitar tab created through the tool. It currently does not support in-line text editing. Any text you place in here will be lost. If you need to comment on your tab, please use the "Tab Notes" section located below.