Sound will begin in 5 seconds

Workingman Bridge with Solo

01234567891011121314151617181920212223
E
B
G
D
A
E
B
0 1 2 3 4 5 6 7 8 9 10 11 12 13 14 15 16 17 18 19 20 21 22 23
Song Science #1: How Pros Use 6 Chords to Write Hit Songs
(/) Slide Up  (\) Slide Down  (h) Hammer On  (p) Pull Off  (b) Bend (r) Release (v) Vibrato

(W|WW) Whole (H|HH) Half (Q|QQ) Quarter (E|EE) 8th (S|SS) 16th (T|TT) 32nd (X|XX) 64th

Stave 1:
t: EE EE EE EE EE EE EE EE EE EE EE EE EE EE EE EE
E|--x---------------------------------------------------------------
B|--15--15--15--17--17--17--17--17--13--13--13--15--15--15--15--15--
G|------------------------------------------------------------------
D|--x---------------------------------------------------------------
A|--15--15--15--15--15--15--15--15--15--15--15--15--15--15--15--15--
E|--x---------------------------------------------------------------

Stave 2:
t: EE EE EE EE EE EE EE EE EE EE EE EE EE EE EE EE
E|--x---------------------------------------------------------------
B|--13--13--13--15--15--15--15--15--11--11--11--13--13--13--13--13--
G|------------------------------------------------------------------
D|--x---------------------------------------------------------------
A|--13--13--13--13--13--13--13--13--13--13--13--13--13--13--13--13--
E|--x---------------------------------------------------------------

Stave 3:
t: E E E EE EE EE EE EE E E E E E E E E
E|--x----------------------------------------------------
B|--8--8--8--10--10--10--10--10--6--6--6--8--8--8--8--8--
G|-------------------------------------------------------
D|--x----------------------------------------------------
A|--8--8--8--8---8---8---8---8---8--8--8--8--8--8--8--8--
E|--x----------------------------------------------------

Stave 4:
t: E E E E E E E EE EE EE EE EE EE EE EE
E|--x--------------------x-------------------------------
B|--8--8--8--8--8--8--8--x-------------------------------
G|-----------------------9---9---9---9---9---9---9---9---
D|--5--5--5--5--5--5--5--10--10--10--10--10--10--10--10--
A|--x--------------------10--10--10--10--10--10--10--10--
E|--8--8--8--8--8--8--8--8---8---8---8---8---8---8---8---

Stave 5:
t: E E E EE EE EE EE EE EE EE EE EE EE EE EE EE
E|--x------------------------------------------------------------
B|--8--8--8--10--10--10--10--10--11--11--11--13--13--13--13--13--
G|---------------------------------------------------------------
D|--x------------------------------------------------------------
A|--8--8--8--8---8---8---8---8---8---8---8---8---8---8---8---8---
E|--x------------------------------------------------------------

Stave 6:
t: WW W W Q Q E E E QQ QQ EE EE EE EE EE
E|-------------------------------------------------------
B|-------------------------------------------------------
G|-------------------------------------------------------
D|--10--8--7-----------------10--10--10--10--10--10--10--
A|------------7--7--7--7--7------------------------------
E|-------------------------------------------------------

Stave 7:
t: HH Q Q Q Q Q Q E E Q Q QQ QQ Q Q Q Q Q Q Q W QQ QQ Q Q Q E Q Q Q Q Q
E|-----------------------------------------------------------------------------------------------
B|-----------------------------------------------------------------------------------------------
G|--12\5--5/9--9\5--5--5\3--2--2\10--10--9--9--9\7--5--5-------10--10--9--9--9\5--5--5--5--5--5--
D|--------------------------------------------------------3--3/----------------------------------
A|-----------------------------------------------------------------------------------------------
E|-----------------------------------------------------------------------------------------------

http://www.guitartabcreator.com
Guitar Tab Creator is intended to store guitar tab created through the tool. It currently does not support in-line text editing. Any text you place in here will be lost. If you need to comment on your tab, please use the "Tab Notes" section located below.