Sound will begin in 5 seconds

Mute City slide solo over chorus outro's

01234567891011121314151617181920212223
E
B
G
D
A
E
B
0 1 2 3 4 5 6 7 8 9 10 11 12 13 14 15 16 17 18 19 20 21 22 23
Song Science #1: How Pros Use 6 Chords to Write Hit Songs
(/) Slide Up  (\) Slide Down  (h) Hammer On  (p) Pull Off  (b) Bend (r) Release (v) Vibrato

Stave 1:

E|--3/15--15--15--15--15--15/14--14--------------------------------------------------------------------------------------
B|-----------------------------------8--8--8--8/13--13--13--13/12--12--12--12--12--12\10--10--8--8--8--8--------------8--
G|--------------------------------------------------------------------------------------------------------5--5--5--5-----
D|-----------------------------------------------------------------------------------------------------------------------
A|-----------------------------------------------------------------------------------------------------------------------
E|-----------------------------------------------------------------------------------------------------------------------

Stave 2:

E|-----------------------------------------------------------
B|-----------------------------------------------------------
G|--12--12--12--12--12--12\11--11\9--9--9--9/17--17--17--17--
D|-----------------------------------------------------------
A|-----------------------------------------------------------
E|-----------------------------------------------------------

Stave 3:

E|-------------------------------------------------------------------------------------------------------------------
B|-------------------------------------------------------------------------------------------------------------------
G|--12--12--12--12--12--12\11--11\9--9--9--9/17--17--17--17\16--16--16--16--16/17--17\16--16--16--16\14--14--14--14--
D|-------------------------------------------------------------------------------------------------------------------
A|-------------------------------------------------------------------------------------------------------------------
E|-------------------------------------------------------------------------------------------------------------------

Stave 4:

E|--15--15--15--15--15--15\14--14--------------------------------
B|---------------------------------8--8--8--8/13--13--13--13\12--
G|---------------------------------------------------------------
D|---------------------------------------------------------------
A|---------------------------------------------------------------
E|---------------------------------------------------------------

Stave 5:

E|--
B|--
G|--
D|--
A|--
E|--

Stave 6:

E|--5-5--5--5--5--5--5--5--5--5-5--5--5--5--5--5--5--5--12-12--12--12--12--12--12--12--12--15--15--15--15--15--15--15--15--
B|--7b8--8--8--8--8--8--8--8--7b8--8--8--8--8--8--8--8--15b17--17--17--17--17--17--17--17--17--17--17--17--17--17--17--17--
G|-------------------------------------------------------------------------------------------------------------------------
D|-------------------------------------------------------------------------------------------------------------------------
A|-------------------------------------------------------------------------------------------------------------------------
E|-------------------------------------------------------------------------------------------------------------------------

Stave 7:

E|--------------------------------------------------------------------------------------------------17--------------17------------------
B|------19------19------19------19------17------17------17------17------15------15------15------15----------15--------------15------15--
G|--------------------------------------------------------------------------------------------------------------------------------------
D|--17------17------17------17------17------17------17------17------17------17------17------17----------17------17------17------17------
A|--------------------------------------------------------------------------------------------------------------------------------------
E|--------------------------------------------------------------------------------------------------------------------------------------

http://www.guitartabcreator.com
Guitar Tab Creator is intended to store guitar tab created through the tool. It currently does not support in-line text editing. Any text you place in here will be lost. If you need to comment on your tab, please use the "Tab Notes" section located below.