brakence - ginger tea riff

Chords

01234567891011121314151617181920212223
E
B
G
D
A
E
B
0 1 2 3 4 5 6 7 8 9 10 11 12 13 14 15 16 17 18 19 20 21 22 23
(/) Slide Up  (\) Slide Down  (h) Hammer On  (p) Pull Off  (b) Bend (r) Release (v) Vibrato

Stave 1:

E|-------12----12b13b12-------12----15p12---------------------12---------------------12----------
B|----13-------------------13----13------------------------------13---------------------12-------
G|-10-------------------10-------------------10/12---12----12-------12/14---14----16----------12\
D|------------------------------------------------------10---------------------------------------
A|-------------------------------------------------0----------------------0----15----------15----
E|-----------------------------------------------------------------------------------------------

Stave 2:

E|-------12----12b12b12-------12----15p12---------------12--------------------------------------
B|----13-------------------13----13---------------------------12b13b12----------12--------------
G|-10-------------------10-------------------10/12---12----12-------------------------9----9----
D|---------------------------------------------------------------------10/12-------12--------12-
A|-------------------------------------------------0--------------------------------------------
E|---------------------------------------------------------------------------10-----------------

							http://www.guitartabcreator.com
Instruments
{"strings":[[[".",".",12,"_",12,"b",13,"b",12,".",".",12,".",15,"p",12,"_",".",".",".",".",".",".",".",12,".",".",".",".",".",".",".",".",12,".",".",".","."],[".",13,".","_",".",".",".",".",".",".",13,".",13,".",".",".","_",".",".",".",".",".",".",".",".",13,".",".",".",".",".",".",".",".",12,".",".","."],[10,".",".","_",".",".",".",".",".",10,".",".",".",".",".",".","_",10,"/",12,".",12,".",12,".",".",12,"/",14,".",14,".",16,".",".",".",12,"\\"],[".",".",".","_",".",".",".",".",".",".",".",".",".",".",".",".","_",".",".",".",".",".",10,".",".",".",".",".",".",".",".",".",".",".",".",".",".","."],[".",".",".","_",".",".",".",".",".",".",".",".",".",".",".",".","_",".",".",".",0,".",".",".",".",".",".",".",".",0,".",15,".",".",".",15,".","."],[".",".",".","_",".",".",".",".",".",".",".",".",".",".",".",".","_",".",".",".",".",".",".",".",".",".",".",".",".",".",".",".",".",".",".",".",".","."]],[[".",".",12,"_",12,"b",12,"b",12,".",".",12,".",15,"p",12,"_",".",".",".",".",".",12,".",".",".",".",".",".",".",".",".",".",".",".",".","_",".","."],[".",13,".","_",".",".",".",".",".",".",13,".",13,".",".",".","_",".",".",".",".",".",".",".",12,"b",13,"b",12,".",".",".",".",12,".",".","_",".","."],[10,".",".","_",".",".",".",".",".",10,".",".",".",".",".",".","_",10,"/",12,".",12,".",12,".",".",".",".",".",".",".",".",".",".",".",9,"_",9,"."],[".",".",".","_",".",".",".",".",".",".",".",".",".",".",".",".","_",".",".",".",".",".",".",".",".",".",".",".",".",10,"/",12,".",".",12,".","_",".",12],[".",".",".","_",".",".",".",".",".",".",".",".",".",".",".",".","_",".",".",".",0,".",".",".",".",".",".",".",".",".",".",".",".",".",".",".","_",".","."],[".",".",".","_",".",".",".",".",".",".",".",".",".",".",".",".","_",".",".",".",".",".",".",".",".",".",".",".",".",".",".",".",10,".",".",".","_",".","."]]],"numberofstrings":6,"notes":["E","B","G","D","A","E","B"],"capo":0,"stringnotes":["E4","B3","G3","D3","A2","E2"],"comments":["Stave 1:","Stave 2:"],"timing":[["W","W","W",null,"W",null,"W",null,"W","W","W","W","W","W","W","W","W","W","W","W","W","W","W","W","W","W","W",null,"W","W","W","W","W","W","W","W","W","W","W","W","W","W"],["W","W","W",null,"W",null,"W",null,"W","W","W","W","W","W",null,"W",null,"W",null,"W","W","W","W","W","W",null,"W",null,"W","W",null,"W","W","W","W","W","W","W","W"]],"timingvisible":false,"tabcounter":39,"stave":1,"totalstaves":2,"instrument":"6guitar","selectedtuning":"6_standard","version":"13"}

Member for

1 month 2 weeks
Submitted by Raxann on Mon, 2020-10-26 09:56