Dreamers Ball Guitar Solo

Chords

01234567891011121314151617181920212223
E
B
G
D
A
E
B
0 1 2 3 4 5 6 7 8 9 10 11 12 13 14 15 16 17 18 19 20 21 22 23
(/) Slide Up  (\) Slide Down  (h) Hammer On  (p) Pull Off  (b) Bend (r) Release (v) Vibrato

Stave 1:

E|--------------------------------------10b10--8b8--8------------7-------------------------------------9b9--9b9------10--14------------------12--
B|--------------10--10-----7--8--9--10-----------------------10-----10--9--9--8--8--6-----7--8--9--10------------10----------15-----------13b----
G|--6--7--8--9-----------------------------------------8--9----------------------------------------------------------------------16b14r----------
D|-----------------------------------------------------------------------------------------------------------------------------------------------
A|-----------------------------------------------------------------------------------------------------------------------------------------------
E|-----------------------------------------------------------------------------------------------------------------------------------------------

Stave 2:

E|-----------------------------------------------------------------------------------------------
B|--13b13b-----------------12b12--12--------------------10------12--12b12--10--12------10--12h10p
G|-------------------14v--\-----------11b11--9--10--11------11---------------------11------------
D|-----------13--14------------------------------------------------------------------------------
A|-----------------------------------------------------------------------------------------------
E|-----------------------------------------------------------------------------------------------

							http://www.guitartabcreator.com
Instruments
{"strings":[[[".",".",".",".",".",".","_",".",".",".",".",10,"b",10,8,"b",8,8,".",".",".",7,".",".",".",".",".",".","_",".",".",".",".",9,"b",9,9,"b",9,".",10,14,".",".",".",".",".","_",".",".",12],[".",".",".",".",10,10,"_",7,8,9,10,".",".",".",".",".",".",".",".",".",10,".",10,9,9,8,8,6,"_",7,8,9,10,".",".",".",".",".",".",10,".",".",15,".",".",".",".","_",13,"b","."],[6,7,8,9,".",".","_",".",".",".",".",".",".",".",".",".",".",".",8,9,".",".",".",".",".",".",".",".","_",".",".",".",".",".",".",".",".",".",".",".",".",".",".",16,"b",14,"r","_",".",".","."],[".",".",".",".",".",".","_",".",".",".",".",".",".",".",".",".",".",".",".",".",".",".",".",".",".",".",".",".","_",".",".",".",".",".",".",".",".",".",".",".",".",".",".",".",".",".",".","_",".",".","."],[".",".",".",".",".",".","_",".",".",".",".",".",".",".",".",".",".",".",".",".",".",".",".",".",".",".",".",".","_",".",".",".",".",".",".",".",".",".",".",".",".",".",".",".",".",".",".","_",".",".","."],[".",".",".",".",".",".","_",".",".",".",".",".",".",".",".",".",".",".",".",".",".",".",".",".",".",".",".",".","_",".",".",".",".",".",".",".",".",".",".",".",".",".",".",".",".",".",".","_",".",".","."]],[[".",".",".",".","_",".",".",".",".",".",".",".",".",".",".",".",".",".",".",".",".",".",".",".",".",".",".",".",".",".",".",".",".","."],[13,"b",13,"b","_",".",".",".",".",".",12,"b",12,12,".",".",".",".",".",".",10,".",12,12,"b",12,10,12,".",10,12,"h",10,"p"],[".",".",".",".","_",".",".",14,"v","\\",".",".",".",".",11,"b",11,9,10,11,".",11,".",".",".",".",".",".",11,".",".",".",".","."],[".",".",".",".","_",13,14,".",".",".",".",".",".",".",".",".",".",".",".",".",".",".",".",".",".",".",".",".",".",".",".",".",".","."],[".",".",".",".","_",".",".",".",".",".",".",".",".",".",".",".",".",".",".",".",".",".",".",".",".",".",".",".",".",".",".",".",".","."],[".",".",".",".","_",".",".",".",".",".",".",".",".",".",".",".",".",".",".",".",".",".",".",".",".",".",".",".",".",".",".",".",".","."]]],"numberofstrings":6,"notes":["E","B","G","D","A","E","B"],"capo":0,"stringnotes":["E4","B3","G3","D3","A2","E2"],"comments":["Stave 1:","Stave 2:"],"timing":[["W","W","W","W","W","W",null,"W","W","W","W","W",null,"W","W",null,"W","W","W","W","W","W","W","W","W","W","W","W","W","W","W","W","W","W","W","W","W",null,"W","W","W","W","W","W",null,"W",null,"W","W",null,"W"],["W","W","W",null,"W","W","W","W","W",null,"W",null,"W","W","W","W","W","W","W","W","W","W","W","W",null,"W","W","W","W","W","W","W","W"]],"timingvisible":false,"tabcounter":34,"stave":1,"totalstaves":2,"instrument":"6guitar","selectedtuning":"6_standard","version":"13"}

Member for

1 week 6 days
Submitted by ravelom on Thu, 2020-05-21 12:19