bohemian rhapsody guitar solo

Chords

01234567891011121314151617181920212223
E
B
G
D
A
E
B
0 1 2 3 4 5 6 7 8 9 10 11 12 13 14 15 16 17 18 19 20 21 22 23
(/) Slide Up  (\) Slide Down  (h) Hammer On  (p) Pull Off  (b) Bend (r) Release (v) Vibrato

Stave 1:

E|-----------------------------------------------------------15--16--18--19b19--18--16--15--16--15------15-------------------------------------
B|--------------11--8--11b13--15--16--13--15--16--16b13--18-----------------------------------------18------18--16--15--16------15-------------
G|-----10b10r8--------------------------------------------------------------------------------------------------------------17------17--15-----
D|--8------------------------------------------------------------------------------------------------------------------------------------------
A|---------------------------------------------------------------------------------------------------------------------------------------------
E|---------------------------------------------------------------------------------------------------------------------------------------------

Stave 2:

E|----------------------15--16--18-------------------------15--16--18--19b------------------------------------------------------------------
B|----------15--16--18-------------------------15--16--18-----------------13--15--16--13--15--16b------------16b----14--14--14\-------------
G|--15--17-----------------------------15--17--------------------------------------------------------12--13-----13-------------6--7h6p4-----
D|-----------------------------------------------------------------------------------------------15--------------------------------------7--
A|------------------------------------------------------------------------------------------------------------------------------------------
E|------------------------------------------------------------------------------------------------------------------------------------------

							http://www.guitartabcreator.com
Instruments
{"strings":[[[".",".",".",".",".",".",".",".",".",".",".",".",".",".",".",".",".",".",".",".",15,16,18,19,"b",19,18,16,15,16,15,".",15,".",".",".",".",".",".",".",".","_"],[".",".",".",".",".",".",11,8,11,"b",13,15,16,13,15,16,16,"b",13,18,".",".",".",".",".",".",".",".",".",".",".",18,".",18,16,15,16,".",15,".",".","_"],[".",10,"b",10,"r",8,".",".",".",".",".",".",".",".",".",".",".",".",".",".",".",".",".",".",".",".",".",".",".",".",".",".",".",".",".",".",".",17,".",17,15,"_"],[8,".",".",".",".",".",".",".",".",".",".",".",".",".",".",".",".",".",".",".",".",".",".",".",".",".",".",".",".",".",".",".",".",".",".",".",".",".",".",".",".","_"],[".",".",".",".",".",".",".",".",".",".",".",".",".",".",".",".",".",".",".",".",".",".",".",".",".",".",".",".",".",".",".",".",".",".",".",".",".",".",".",".",".","_"],[".",".",".",".",".",".",".",".",".",".",".",".",".",".",".",".",".",".",".",".",".",".",".",".",".",".",".",".",".",".",".",".",".",".",".",".",".",".",".",".",".","_"]],[[".",".",".",".",".",15,16,18,"_",".",".",".",".",".",15,16,18,19,"b",".",".",".",".",".",".",".",".",".",".",".",".",".",".",".",".",".",".",".",".",".",".",".","."],[".",".",15,16,18,".",".",".","_",".",".",15,16,18,".",".",".",".",".",13,15,16,13,15,16,"b",".",".",".",16,"b",".",14,14,14,"\\",".",".",".",".",".",".","."],[15,17,".",".",".",".",".",".","_",15,17,".",".",".",".",".",".",".",".",".",".",".",".",".",".",".",".",12,13,".",".",13,".",".",".",".",6,7,"h",6,"p",4,"."],[".",".",".",".",".",".",".",".","_",".",".",".",".",".",".",".",".",".",".",".",".",".",".",".",".",".",15,".",".",".",".",".",".",".",".",".",".",".",".",".",".",".",7],[".",".",".",".",".",".",".",".","_",".",".",".",".",".",".",".",".",".",".",".",".",".",".",".",".",".",".",".",".",".",".",".",".",".",".",".",".",".",".",".",".",".","."],[".",".",".",".",".",".",".",".","_",".",".",".",".",".",".",".",".",".",".",".",".",".",".",".",".",".",".",".",".",".",".",".",".",".",".",".",".",".",".",".",".",".","."]]],"numberofstrings":6,"notes":["E","B","G","D","A","E","B"],"capo":0,"stringnotes":["E4","B3","G3","D3","A2","E2"],"comments":["Stave 1:","Stave 2:","Stave 3:"],"timing":[["W","W",null,"W",null,"W","W","W","W",null,"W","W","W","W","W","W","W",null,"W","W","W","W","W","W",null,"W","W","W","W","W","W","W","W","W","W","W","W","W","W","W","W",null,"W","W","W","W","W","W","W","W"],["W","W","W","W","W","W","W","W",null,"W","W","W","W","W","W","W","W","W",null,"W","W","W","W","W","W",null,"W","W","W","W",null,"W","W","W","W",null,"W","W",null,"W",null,"W","W"],[]],"timingvisible":false,"tabcounter":43,"stave":1,"totalstaves":2,"instrument":"6guitar","selectedtuning":"6_standard","version":"13"}

Member for

1 week 6 days
Submitted by ravelom on Wed, 2020-05-20 14:31