Welcome The Healer Key of D

Chords

01234567891011121314151617181920212223
E
B
G
D
A
E
B
0 1 2 3 4 5 6 7 8 9 10 11 12 13 14 15 16 17 18 19 20 21 22 23
(/) Slide Up  (\) Slide Down  (h) Hammer On  (p) Pull Off  (b) Bend (r) Release (v) Vibrato

Stave 1:

E|--7-------------------------------
B|--10--10--7--8-----7--------------
G|--7-------------9-----7--9--------
D|--7-------------------------------
A|----------------------------------
E|----------------------------------

Stave 2:

E|-------------10-----------------------------12--10----------------15--14--
B|---------10------10---------------------10--------------------15----------
G|--11h12--------------12--11------11h12--------------11h12\14--------------
D|-----------------------------12-------------------------------------------
A|--------------------------------------------------------------------------
E|--------------------------------------------------------------------------

							http://www.guitartabcreator.com
Instruments
{"strings":[[[7,".",".",".",".",".",".",".","_","_"],[10,10,7,8,".",7,".",".","_","_"],[7,".",".",".",9,".",7,9,"_","_"],[7,".",".",".",".",".",".",".","_","_"],[".",".",".",".",".",".",".",".","_","_"],[".",".",".",".",".",".",".",".","_","_"]],[[".",".",".",".",10,".",".",".",".",".",".",".",".",12,10,".",".",".",".",".",".",15,14],[".",".",".",10,".",10,".",".",".",".",".",".",10,".",".",".",".",".",".",".",15,".","."],[11,"h",12,".",".",".",12,11,".",11,"h",12,".",".",".",11,"h",12,"\\",14,".",".","."],[".",".",".",".",".",".",".",".",12,".",".",".",".",".",".",".",".",".",".",".",".",".","."],[".",".",".",".",".",".",".",".",".",".",".",".",".",".",".",".",".",".",".",".",".",".","."],[".",".",".",".",".",".",".",".",".",".",".",".",".",".",".",".",".",".",".",".",".",".","."]]],"numberofstrings":6,"notes":["E","B","G","D","A","E","B"],"capo":0,"stringnotes":["E4","B3","G3","D3","A2","E2"],"comments":["Stave 1:","Stave 2:"],"timing":[[null,null,null,null,null,null,null,null],[null,null,null,null,null,null,null,null,null,null,null,null,null,null,null,null,null,null,null,null,null,null,null,null]],"timingvisible":false,"tabcounter":23,"stave":1,"totalstaves":2,"instrument":"6guitar","selectedtuning":"6_standard","version":"13"}

Member for

5 months 1 week
Submitted by rauchbdr on Thu, 2020-07-30 09:39