Anything is Possible Solo in D by Bethel Music

Chords

01234567891011121314151617181920212223
E
B
G
D
A
E
B
0 1 2 3 4 5 6 7 8 9 10 11 12 13 14 15 16 17 18 19 20 21 22 23
(/) Slide Up  (\) Slide Down  (h) Hammer On  (p) Pull Off  (b) Bend (r) Release (v) Vibrato

Stave 1:

E|--14--14--14----------14--14--14------------------14--14--14------------------
B|--------------15------------------15--------------------------15--17------15--
G|------------------14------------------12------------------------------17------
D|------------------------------------------14--11------------------------------
A|------------------------------------------------------------------------------
E|------------------------------------------------------------------------------

Stave 2:

E|------14------14--14--14----------14--14--14------------------14--14--14--------------
B|--17------15--------------15------------------15--12----------------------15--17--14--
G|------------------------------14----------------------14--11--------------------------
D|--------------------------------------------------------------------------------------
A|--------------------------------------------------------------------------------------
E|--------------------------------------------------------------------------------------

Stave 3:

E|--------------14--15--17------14--14--14----------14--14--14------------------
B|--14--15--17--------------15--------------15------------------15--12----------
G|----------------------------------------------14----------------------14--11--
D|------------------------------------------------------------------------------
A|------------------------------------------------------------------------------
E|------------------------------------------------------------------------------

Stave 4:

E|--14--14--14------12----------------------14--14--14----------14--14--14----------
B|--------------15------14--15--17----------------------15------------------15--12--
G|----------------------------------14--12------------------14----------------------
D|----------------------------------------------------------------------------------
A|----------------------------------------------------------------------------------
E|----------------------------------------------------------------------------------

Stave 5:

E|------------14--14--14----------14--15--17--14--15--17------
B|------------------------15------------------------------15--
G|--5--4--11------------------14------------------------------
D|------------------------------------------------------------
A|------------------------------------------------------------
E|------------------------------------------------------------

							http://www.guitartabcreator.com
Instruments
{"strings":[[[14,14,14,".",".",14,14,14,".",".",".",".",14,14,14,".",".",".","."],[".",".",".",15,".",".",".",".",15,".",".",".",".",".",".",15,17,".",15],[".",".",".",".",14,".",".",".",".",12,".",".",".",".",".",".",".",17,"."],[".",".",".",".",".",".",".",".",".",".",14,11,".",".",".",".",".",".","."],[".",".",".",".",".",".",".",".",".",".",".",".",".",".",".",".",".",".","."],[".",".",".",".",".",".",".",".",".",".",".",".",".",".",".",".",".",".","."]],[[".",14,".",14,14,14,".",".",14,14,14,".",".",".",".",14,14,14,".",".","."],[17,".",15,".",".",".",15,".",".",".",".",15,12,".",".",".",".",".",15,17,14],[".",".",".",".",".",".",".",14,".",".",".",".",".",14,11,".",".",".",".",".","."],[".",".",".",".",".",".",".",".",".",".",".",".",".",".",".",".",".",".",".",".","."],[".",".",".",".",".",".",".",".",".",".",".",".",".",".",".",".",".",".",".",".","."],[".",".",".",".",".",".",".",".",".",".",".",".",".",".",".",".",".",".",".",".","."]],[[".",".",".",14,15,17,".",14,14,14,".",".",14,14,14,".",".",".","."],[14,15,17,".",".",".",15,".",".",".",15,".",".",".",".",15,12,".","."],[".",".",".",".",".",".",".",".",".",".",".",14,".",".",".",".",".",14,11],[".",".",".",".",".",".",".",".",".",".",".",".",".",".",".",".",".",".","."],[".",".",".",".",".",".",".",".",".",".",".",".",".",".",".",".",".",".","."],[".",".",".",".",".",".",".",".",".",".",".",".",".",".",".",".",".",".","."]],[[14,14,14,".",12,".",".",".",".",".",14,14,14,".",".",14,14,14,".","."],[".",".",".",15,".",14,15,17,".",".",".",".",".",15,".",".",".",".",15,12],[".",".",".",".",".",".",".",".",14,12,".",".",".",".",14,".",".",".",".","."],[".",".",".",".",".",".",".",".",".",".",".",".",".",".",".",".",".",".",".","."],[".",".",".",".",".",".",".",".",".",".",".",".",".",".",".",".",".",".",".","."],[".",".",".",".",".",".",".",".",".",".",".",".",".",".",".",".",".",".",".","."]],[[".",".",".",14,14,14,".",".",14,15,17,14,15,17,"."],[".",".",".",".",".",".",15,".",".",".",".",".",".",".",15],[5,4,11,".",".",".",".",14,".",".",".",".",".",".","."],[".",".",".",".",".",".",".",".",".",".",".",".",".",".","."],[".",".",".",".",".",".",".",".",".",".",".",".",".",".","."],[".",".",".",".",".",".",".",".",".",".",".",".",".",".","."]]],"numberofstrings":6,"notes":["E","B","G","D","A","E","B"],"capo":0,"stringnotes":["E4","B3","G3","D3","A2","E2"],"comments":["Stave 1:","Stave 2:","Stave 3:","Stave 4:","Stave 5:"],"timing":[["W","W","W","W","W","W","W","W","W","W","W","W","W","W","W","W","W","W","W"],["W","W","W","W","W","W","W","W","W","W","W","W","W","W","W","W","W","W","W","W","W"],["W","W","W","W","W","W","W","W","W","W","W","W","W","W","W","W","W","W","W"],["W","W","W","W","W","W","W","W","W","W","W","W","W","W","W","W","W","W","W","W"],["W","W","W","W","W","W","W","W","W","W","W","W","W","W","W"]],"timingvisible":false,"tabcounter":15,"stave":4,"totalstaves":5,"instrument":"6guitar","selectedtuning":"6_standard","version":"13"}

Member for

6 months 3 weeks
Submitted by rauchbdr on Tue, 2020-09-15 11:18