Anything is Possible in D Rhythm Guitar

Chords

01234567891011121314151617181920212223
E
B
G
D
A
E
B
0 1 2 3 4 5 6 7 8 9 10 11 12 13 14 15 16 17 18 19 20 21 22 23
(/) Slide Up  (\) Slide Down  (h) Hammer On  (p) Pull Off  (b) Bend (r) Release (v) Vibrato

Stave 1:

E|-----
B|-----
G|--6--
D|--6--
A|--4--
E|-----

Stave 2:

E|-------------------------------------------------------------------------------
B|--------------------------------------------------------6--9-------------------
G|---------------6v--v--6v--v---------------6v--v--6v--v--------6v--v--6v--v-----
D|--6v--v--v--v----------------6v--v--v--v------------------------------------6--
A|-------------------------------------------------------------------------------
E|-------------------------------------------------------------------------------

Stave 3:

E|------------------
B|------------------
G|------------------
D|--11--11--11--11--
A|------------------
E|------------------

Stave 4:

E|------------------------------------------------------------------------------------------
B|----------9----------9----------9----------9---------9---------9---------9---------9------
G|------10---------10---------10---------10--------10--------10--------10--------10---------
D|--11---------11---------------------------------------------------------------------------
A|------------------------11---------11---------8---------8---------9---------9---------11--
E|------------------------------------------------------------------------------------------

Stave 5:

E|--9---9---4--9---9---4--
B|--9---9---4--9---9---4--
G|--11--10--6--11--10--5--
D|--11--11--6--11--11--6--
A|------------------------
E|------------------------

Stave 6:

E|--------------------------------------------------------------------------------------------------------------------------
B|--------9--------9--------9--------9---------9---------9---------9---------9----------9----------9----------9----------9--
G|-----6--------6--------6--------6---------8---------8---------8---------8---------10---------10---------10---------10-----
D|--8--------8--------8--------8--------10--------10--------10--------10--------11---------11---------11---------11---------
A|--------------------------------------------------------------------------------------------------------------------------
E|--------------------------------------------------------------------------------------------------------------------------

Stave 7:

E|---------9---------9---------9---------9--
B|------9---------9---------9---------9-----
G|--11--------11--------11--------11--------
D|------------------------------------------
A|------------------------------------------
E|------------------------------------------

Stave 8:

E|--9---9---4--9---9---4--
B|--9---9---4--9---9---4--
G|--11--10--6--11--10--5--
D|--11--11--6--11--11--6--
A|------------------------
E|------------------------

							http://www.guitartabcreator.com
Instruments
{"strings":[[["."],["."],[6],[6],[4],["."]],[[".",".",".",".",".",".",".",".",".",".",".",".",".",".",".",".",".",".",".",".",".",".",".",".",".",".",".",".",".",".","."],[".",".",".",".",".",".",".",".",".",".",".",".",".",".",".",".",".",".",".",".",".",".",6,9,".",".",".",".",".",".","."],[".",".",".",".",".",6,"v","v",6,"v","v",".",".",".",".",".",6,"v","v",6,"v","v",".",".",6,"v","v",6,"v","v","."],[6,"v","v","v","v",".",".",".",".",".",".",6,"v","v","v","v",".",".",".",".",".",".",".",".",".",".",".",".",".",".",6],[".",".",".",".",".",".",".",".",".",".",".",".",".",".",".",".",".",".",".",".",".",".",".",".",".",".",".",".",".",".","."],[".",".",".",".",".",".",".",".",".",".",".",".",".",".",".",".",".",".",".",".",".",".",".",".",".",".",".",".",".",".","."]],[[".",".",".","."],[".",".",".","."],[".",".",".","."],[11,11,11,11],[".",".",".","."],[".",".",".","."]],[[".",".",".",".",".",".",".",".",".",".",".",".",".",".",".",".",".",".",".",".",".",".",".",".","."],[".",".",9,".",".",9,".",".",9,".",".",9,".",".",9,".",".",9,".",".",9,".",".",9,"."],[".",10,".",".",10,".",".",10,".",".",10,".",".",10,".",".",10,".",".",10,".",".",10,".","."],[11,".",".",11,".",".",".",".",".",".",".",".",".",".",".",".",".",".",".",".",".",".",".",".","."],[".",".",".",".",".",".",11,".",".",11,".",".",8,".",".",8,".",".",9,".",".",9,".",".",11],[".",".",".",".",".",".",".",".",".",".",".",".",".",".",".",".",".",".",".",".",".",".",".",".","."]],[[9,9,4,9,9,4],[9,9,4,9,9,4],[11,10,6,11,10,5],[11,11,6,11,11,6],[".",".",".",".",".","."],[".",".",".",".",".","."]],[[".",".",".",".",".",".",".",".",".",".",".",".",".",".",".",".",".",".",".",".",".",".",".",".",".",".",".",".",".",".",".",".",".",".",".","."],[".",".",9,".",".",9,".",".",9,".",".",9,".",".",9,".",".",9,".",".",9,".",".",9,".",".",9,".",".",9,".",".",9,".",".",9],[".",6,".",".",6,".",".",6,".",".",6,".",".",8,".",".",8,".",".",8,".",".",8,".",".",10,".",".",10,".",".",10,".",".",10,"."],[8,".",".",8,".",".",8,".",".",8,".",".",10,".",".",10,".",".",10,".",".",10,".",".",11,".",".",11,".",".",11,".",".",11,".","."],[".",".",".",".",".",".",".",".",".",".",".",".",".",".",".",".",".",".",".",".",".",".",".",".",".",".",".",".",".",".",".",".",".",".",".","."],[".",".",".",".",".",".",".",".",".",".",".",".",".",".",".",".",".",".",".",".",".",".",".",".",".",".",".",".",".",".",".",".",".",".",".","."]],[[".",".",9,".",".",9,".",".",9,".",".",9],[".",9,".",".",9,".",".",9,".",".",9,"."],[11,".",".",11,".",".",11,".",".",11,".","."],[".",".",".",".",".",".",".",".",".",".",".","."],[".",".",".",".",".",".",".",".",".",".",".","."],[".",".",".",".",".",".",".",".",".",".",".","."]],[[9,9,4,9,9,4],[9,9,4,9,9,4],[11,10,6,11,10,5],[11,11,6,11,11,6],[".",".",".",".",".","."],[".",".",".",".",".","."]]],"numberofstrings":6,"notes":["E","B","G","D","A","E","B"],"capo":0,"stringnotes":["E4","B3","G3","D3","A2","E2"],"comments":["Stave 1:","Stave 2:","Stave 3:","Stave 4:","Stave 5:","Stave 6:","Stave 7:","Stave 8:"],"timing":[["W"],["W",null,null,null,null,"W",null,null,"W",null,null,"W",null,null,null,null,"W",null,null,"W",null,null,"W","W","W",null,null,"W",null,null,"W"],["W","W","W","W"],["W","W","W","W","W","W","W","W","W","W","W","W","W","W","W","W","W","W","W","W","W","W","W","W","W"],["W","W","W","W","W","W"],["W","W","W","W","W","W","W","W","W","W","W","W","W","W","W","W","W","W","W","W","W","W","W","W","W","W","W","W","W","W","W","W","W","W","W","W"],["W","W","W","W","W","W","W","W","W","W","W","W"],["W","W","W","W","W","W"]],"timingvisible":false,"tabcounter":5,"stave":7,"totalstaves":8,"instrument":"6guitar","selectedtuning":"6_standard","version":"13"}

Member for

6 months 3 weeks
Submitted by rauchbdr on Tue, 2020-09-15 13:26