Anything is Possible in D guitar lead by Bethel Music

Chords

01234567891011121314151617181920212223
E
B
G
D
A
E
B
0 1 2 3 4 5 6 7 8 9 10 11 12 13 14 15 16 17 18 19 20 21 22 23
(/) Slide Up  (\) Slide Down  (h) Hammer On  (p) Pull Off  (b) Bend (r) Release (v) Vibrato

Stave 1:

E|-----------------
B|-----------------
G|--6--6--6--6--6--
D|--6--6--8--4--6--
A|--5--5--8-----5--
E|-----------------

Stave 2:

E|-----------------------------------
B|-----------------------------------
G|-----------6-----------------------
D|--6--------6--------8--6--------6--
A|--4--8--9--4--8--9--------8--9--4--
E|-----------------------------------

Stave 3:

E|--------4--------4-----------4--------4-----------4--------4-----------4--------4-----
B|--------------------------------------------------------------------------------------
G|-----6--------6-----------6--------6-----------6--------6-----6-----6--------6--------
D|--4-----------------6--4-----------------6--4--------8-----------4-----------------6--
A|-----------4--------------------4-----------------------------------------4-----------
E|--------------------------------------------------------------------------------------

Stave 4:

E|--------4--------4--------4--------4--------4--------4--------------------------------------------------------------------------------------------
B|--------------------------------------------------------------4--------4--------4--------4--------4--------4--------4--------4--------4--------4--
G|-----6--------6--------6--------6--------6--------6--------6--------6--------6--------6--------6--------6--------6--------6--------6--------6-----
D|--6--------6--------6--------6--------------------------4--------4--------4--------4--------4--------4--------------------------4--------4--------
A|--------------------------------------8--------8--------------------------------------------------------------8--------8--------------------------
E|--------------------------------------------------------------------------------------------------------------------------------------------------

Stave 5:

E|-----
B|-----
G|-----
D|-----
A|--4--
E|-----

Stave 6:

E|--------------------------
B|--------------------------
G|--------------------------
D|--------------------------
A|--4--4--------8--8--9--9--
E|--------8--8--------------

							http://www.guitartabcreator.com
Instruments
{"strings":[[[".",".",".",".","."],[".",".",".",".","."],[6,6,6,6,6],[6,6,8,4,6],[5,5,8,".",5],[".",".",".",".","."]],[[".",".",".",".",".",".",".",".",".",".","."],[".",".",".",".",".",".",".",".",".",".","."],[".",".",".",6,".",".",".",".",".",".","."],[6,".",".",6,".",".",8,6,".",".",6],[4,8,9,4,8,9,".",".",8,9,4],[".",".",".",".",".",".",".",".",".",".","."]],[[".",".",4,".",".",4,".",".",".",4,".",".",4,".",".",".",4,".",".",4,".",".",".",4,".",".",4,"."],[".",".",".",".",".",".",".",".",".",".",".",".",".",".",".",".",".",".",".",".",".",".",".",".",".",".",".","."],[".",6,".",".",6,".",".",".",6,".",".",6,".",".",".",6,".",".",6,".",6,".",6,".",".",6,".","."],[4,".",".",".",".",".",6,4,".",".",".",".",".",6,4,".",".",8,".",".",".",4,".",".",".",".",".",6],[".",".",".",4,".",".",".",".",".",".",4,".",".",".",".",".",".",".",".",".",".",".",".",".",4,".",".","."],[".",".",".",".",".",".",".",".",".",".",".",".",".",".",".",".",".",".",".",".",".",".",".",".",".",".",".","."]],[[".",".",4,".",".",4,".",".",4,".",".",4,".",".",4,".",".",4,".",".",".",".",".",".",".",".",".",".",".",".",".",".",".",".",".",".",".",".",".",".",".",".",".",".",".",".",".","."],[".",".",".",".",".",".",".",".",".",".",".",".",".",".",".",".",".",".",".",".",4,".",".",4,".",".",4,".",".",4,".",".",4,".",".",4,".",".",4,".",".",4,".",".",4,".",".",4],[".",6,".",".",6,".",".",6,".",".",6,".",".",6,".",".",6,".",".",6,".",".",6,".",".",6,".",".",6,".",".",6,".",".",6,".",".",6,".",".",6,".",".",6,".",".",6,"."],[6,".",".",6,".",".",6,".",".",6,".",".",".",".",".",".",".",".",4,".",".",4,".",".",4,".",".",4,".",".",4,".",".",4,".",".",".",".",".",".",".",".",4,".",".",4,".","."],[".",".",".",".",".",".",".",".",".",".",".",".",8,".",".",8,".",".",".",".",".",".",".",".",".",".",".",".",".",".",".",".",".",".",".",".",8,".",".",8,".",".",".",".",".",".",".","."],[".",".",".",".",".",".",".",".",".",".",".",".",".",".",".",".",".",".",".",".",".",".",".",".",".",".",".",".",".",".",".",".",".",".",".",".",".",".",".",".",".",".",".",".",".",".",".","."]],[["."],["."],["."],["."],[4],["."]],[[".",".",".",".",".",".",".","."],[".",".",".",".",".",".",".","."],[".",".",".",".",".",".",".","."],[".",".",".",".",".",".",".","."],[4,4,".",".",8,8,9,9],[".",".",8,8,".",".",".","."]]],"numberofstrings":6,"notes":["E","B","G","D","A","E","B"],"capo":0,"stringnotes":["E4","B3","G3","D3","A2","E2"],"comments":["Stave 1:","Stave 2:","Stave 3:","Stave 4:","Stave 5:","Stave 6:"],"timing":[["W","W","W","W","W"],["W","W","W","W","W","W","W","W","W","W","W"],["W","W","W","W","W","W","W","W","W","W","W","W","W","W","W","W","W","W","W","W","W","W","W","W","W","W","W","W"],["W","W","W","W","W","W","W","W","W","W","W","W","W","W","W","W","W","W","W","W","W","W","W","W","W","W","W","W","W","W","W","W","W","W","W","W","W","W","W","W","W","W","W","W","W","W","W","W"],["W"],["W","W","W","W","W","W","W","W"]],"timingvisible":false,"tabcounter":8,"stave":5,"totalstaves":6,"instrument":"6guitar","selectedtuning":"6_standard","version":"13"}

Member for

6 months 3 weeks
Submitted by rauchbdr on Tue, 2020-09-15 13:01