Heal

Chords

01234567891011121314151617181920212223
E
B
G
D
A
E
B
0 1 2 3 4 5 6 7 8 9 10 11 12 13 14 15 16 17 18 19 20 21 22 23
(/) Slide Up  (\) Slide Down  (h) Hammer On  (p) Pull Off  (b) Bend (r) Release (v) Vibrato

Capo Fret 1

Stave 1:

E|---------------------------------------
B|-----1-1-----0---------1---------------
G|---2-------0---0-----0-----------2-----
D|-------------------------------3-------
A|-0-----------------3---------3---------
E|---------3-------0-------0-0-------0-0-

Stave 2:

E|---------------------------------------
B|-----1-1-----0---------1---------------
G|---2-------0---0-----0-----------2-----
D|-------------------------2-----3-------
A|-0-----------------3---------3---------
E|---------3-------0---------0-------1-1-

Stave 3:

E|-0-----------------1-0-------0---
B|-1-------3-------1---1-----1---1-
G|-2-----2-------2-----0---0-----2-
D|-2---2-------3-------2---------3-
A|-0-0-------3---------3-3-------3-
E|---------------------0---------1-

Stave 4:

E|-----------------------------------------
B|-------1---1-------0-------------1-------
G|-----2---------2---0-0-------0---2-----2-
D|---2---------------0-------2---2-3---3---
A|-0-------0---0-----------3-------3-------
E|-----------------3-----0---------0-0-----

Stave 5:

E|-----------------------------------
B|-----1-1-0---------1---------------
G|-----2---0-------0-------2-------2-
D|-----2---0-----2-----2-------3-----
A|-0-0-----------------3-------------
E|---------3-3-0---------1---1---1---

Stave 6:

E|-0-----------------1-0-------0-----------1p0-
B|-1-------3-------1---1-----1---1-------------
G|-2-----2-------2-----0---0-----2-----2-------
D|-2---2-------3-------2---------3---3---------
A|-0-0-------3---------3-3-------3-3-----3-----
E|---------------------0---------1-------------

Stave 7:

E|-----------3-0-------1-------
B|-------1---0-1-----1-----1p0-
G|-----2-----0-0---2-----2-2---
D|---2-----2-0-2-0-------------
A|-0---------2-3---------------
E|-----------3-----------------

Stave 8:

E|---------3-0-------1-------1---0-
B|-----1---3-1-----1-------------1-
G|---------0-0---2-------2-----2---
D|---2-----0-2-0-------0---0-------
A|-0-----0-2-3---------------------
E|---------3-----------------------

							http://www.guitartabcreator.com
Instruments
{"strings":[[[".",".",".",".",".",".",".",".",".",".",".",".",".",".",".",".",".",".","."],[".",".",1,1,".",".",0,".",".",".",".",1,".",".",".",".",".",".","."],[".",2,".",".",".",0,".",0,".",".",0,".",".",".",".",".",2,".","."],[".",".",".",".",".",".",".",".",".",".",".",".",".",".",".",3,".",".","."],[0,".",".",".",".",".",".",".",".",3,".",".",".",".",3,".",".",".","."],[".",".",".",".",3,".",".",".",0,".",".",".",0,0,".",".",".",0,0]],[[".",".",".",".",".",".",".",".",".",".",".",".",".",".",".",".",".",".","."],[".",".",1,1,".",".",0,".",".",".",".",1,".",".",".",".",".",".","."],[".",2,".",".",".",0,".",0,".",".",0,".",".",".",".",".",2,".","."],[".",".",".",".",".",".",".",".",".",".",".",".",2,".",".",3,".",".","."],[0,".",".",".",".",".",".",".",".",3,".",".",".",".",3,".",".",".","."],[".",".",".",".",3,".",".",".",0,".",".",".",".",0,".",".",".",1,1]],[[0,".",".",".",".",".",".",".",".",1,0,".",".",".",0,"."],[1,".",".",".",3,".",".",".",1,".",1,".",".",1,".",1],[2,".",".",2,".",".",".",2,".",".",0,".",0,".",".",2],[2,".",2,".",".",".",3,".",".",".",2,".",".",".",".",3],[0,0,".",".",".",3,".",".",".",".",3,3,".",".",".",3],[".",".",".",".",".",".",".",".",".",".",0,".",".",".",".",1]],[[".",".",".",".",".",".",".",".",".",".",".",".",".",".",".",".",".",".",".","."],[".",".",".",1,".",1,".",".",".",0,".",".",".",".",".",".",1,".",".","."],[".",".",2,".",".",".",".",2,".",0,0,".",".",".",0,".",2,".",".",2],[".",2,".",".",".",".",".",".",".",0,".",".",".",2,".",2,3,".",3,"."],[0,".",".",".",0,".",0,".",".",".",".",".",3,".",".",".",3,".",".","."],[".",".",".",".",".",".",".",".",3,".",".",0,".",".",".",".",0,0,".","."]],[[".",".",".",".",".",".",".",".",".",".",".",".",".",".",".",".","."],[".",".",1,1,0,".",".",".",".",1,".",".",".",".",".",".","."],[".",".",2,".",0,".",".",".",0,".",".",".",2,".",".",".",2],[".",".",2,".",0,".",".",2,".",".",2,".",".",".",3,".","."],[0,0,".",".",".",".",".",".",".",".",3,".",".",".",".",".","."],[".",".",".",".",3,3,0,".",".",".",".",1,".",1,".",1,"."]],[[0,".",".",".",".",".",".",".",".",1,0,".",".",".",0,".",".",".",".",".",1,"p",0],[1,".",".",".",3,".",".",".",1,".",1,".",".",1,".",1,".",".",".",".",".",".","."],[2,".",".",2,".",".",".",2,".",".",0,".",0,".",".",2,".",".",2,".",".",".","."],[2,".",2,".",".",".",3,".",".",".",2,".",".",".",".",3,".",3,".",".",".",".","."],[0,0,".",".",".",3,".",".",".",".",3,3,".",".",".",3,3,".",".",3,".",".","."],[".",".",".",".",".",".",".",".",".",".",0,".",".",".",".",1,".",".",".",".",".",".","."]],[[".",".",".",".",".",3,0,".",".",".",1,".",".",".","."],[".",".",".",1,".",0,1,".",".",1,".",".",1,"p",0],[".",".",2,".",".",0,0,".",2,".",".",2,2,".","."],[".",2,".",".",2,0,2,0,".",".",".",".",".",".","."],[0,".",".",".",".",2,3,".",".",".",".",".",".",".","."],[".",".",".",".",".",3,".",".",".",".",".",".",".",".","."]],[[".",".",".",".",3,0,".",".",".",1,".",".",".",1,".",0],[".",".",1,".",3,1,".",".",1,".",".",".",".",".",".",1],[".",".",".",".",0,0,".",2,".",".",".",2,".",".",2,"."],[".",2,".",".",0,2,0,".",".",".",0,".",0,".",".","."],[0,".",".",0,2,3,".",".",".",".",".",".",".",".",".","."],[".",".",".",".",3,".",".",".",".",".",".",".",".",".",".","."]]],"numberofstrings":6,"notes":["E","B","G","D","A","E","B"],"capo":"1","stringnotes":["E4","B3","G3","D3","A2","E2"],"comments":["Stave 1:","Stave 2:","Stave 3:","Stave 4:","Stave 5:","Stave 6:","Stave 7:","Stave 8:"],"timing":[["W","W","W","W","W","W","W","W","W","W","W","W","W","W","W","W","W","W","W"],["W","W","W","W","W","W","W","W","W","W","W","W","W","W","W","W","W","W","W"],["W","W","W","W","W","W","W","W","W","W","W","W","W","W","W","W","W","W","W"],["W","W","W","W","W","W","W","W","W","W","W","W","W","W","W","W","W","W","W","W"],["W","W","W","W","W","W","W","W","W","W","W","W","W","W","W","W","W"],["W","W","W","W","W","W","W","W","W","W","W","W","W","W","W","W","W","W","W","W","W",null,"W"],["W","W","W","W","W","W","W","W","W","W","W","W","W",null,"W"],["W","W","W","W","W","W","W","W","W","W","W","W","W","W","W","W","W"]],"timingvisible":false,"tabcounter":15,"stave":7,"totalstaves":8,"instrument":"6guitar","selectedtuning":"6_standard","version":"13"}

Member for

1 week 3 days
Submitted by Ratonbleu on Tue, 2020-09-15 10:38