Sound will begin in 5 seconds

In The Name Of God

01234567891011121314151617181920212223
E
B
G
D
A
E
B
0 1 2 3 4 5 6 7 8 9 10 11 12 13 14 15 16 17 18 19 20 21 22 23
Song Science #1: How Pros Use 6 Chords to Write Hit Songs
(/) Slide Up  (\) Slide Down  (h) Hammer On  (p) Pull Off  (b) Bend (r) Release (v) Vibrato

Stave 1:

Gb|-----------------
Db|-----------------
Ab|-----------------
Eb|-4----3-4-3----1-

Stave 2:

Gb|-----------------------------------------------------------------
Db|-----------------------------------------------------------------
Ab|-2-2-2-2-1-1-1-1-2-2-1-1-----------------------------------------
Eb|-------------------------3-3-3-3-0-0-0-0-0-0-0-0-1-1-1-1-1-1-1-1-

Stave 3:

Gb|-----------------------------------------------------------------
Db|-----------------------------------------------------------------
Ab|-2-2-2-2-1-1-1-1-2-2-1-1-------------------------1-1-1-1-1-1-1-1-
Eb|-------------------------3-3-3-3-0-0-0-0-0-0-0-0-----------------

Stave 4:

Gb|-----------------------------------------------------------------
Db|-----------------------------------------------------------------
Ab|-2-2-2-2-1-1-1-1-2-2-1-1-----------------------------------------
Eb|-------------------------3-3-3-3-4-4-4-4-3-4-3-3-1-1-1-1-1-1-1-1-

Stave 5:

Gb|-----------------------------------------------------------
Db|-----------------------------------------------------------
Ab|-2-2-2-2-1-1-1-1-2-2-1-1-----------------------------------
Eb|-------------------------3-3-3-3-4----3-4-3----1-------6-5-

Stave 6:

Gb|---------------------
Db|---------------------
Ab|---------------------
Eb|-4-0-0-0-3-0-0-0-6-5-

Stave 7:

Gb|--------------------------------
Db|--------------------------------
Ab|--------------------------------
Eb|-6-5-0-0-1-0-0-0-4-0-0-0-1----3-

Stave 8:

Gb|-----------------------------------------------------------------
Db|-----------------------------------------------------------------
Ab|-----------------------------------------------------------------
Eb|-6-5-0-0-1-0-0-0-4-3-0-0-1-1-0-0-6-5-0-0-1-0-0-0-4-0-0-0-3-0-0-0-

Stave 9:

Gb|----------------------------------------------------------------
Db|----------------------------------------------------------------
Ab|----------------------------------------------------------------
Eb|-6-5-0-0-1-0-0-0-4-3-0-0-1-1-0-0-6-5-0-0-1-0-0-0-4-0-0-0-1----3-

Stave 10:

Gb|-----------------------------------------------------------------
Db|-----------------------------------------------------------------
Ab|-3-3-3-3-2-2-2-2-----------------2-2-2-2-1-1-1-1-----------------
Eb|-----------------4-4-4-4-4-4-4-4-----------------3-3-3-3-3-3-3-3-

Stave 11:

Gb|------------------------------------------------------------------
Db|------------------------------------------------------------------
Ab|-3-3-3-3-2-2-2-2-----------------2-2-2-2-1-1-1-1------------------
Eb|-----------------4-4-4-4-4-4-4-4-----------------1----1----1----1-

Stave 12:

Gb|------------------------------------------------------------------
Db|------------------------------------------------------------------
Ab|-3-3-3-3-2-2-2-2-----------------2-2-2-2-1-1-1-1------------------
Eb|-----------------4-4-4-4-4-4-4-4-----------------4----3----2----1-

Stave 13:

Gb|------------------------------
Db|------------------------------
Ab|-2----1----2-1----------------
Eb|---------------3----0----1----

Stave 14:

Gb|--------------------------------------------------------
Db|--------------------------------------------------------
Ab|-2-2-2-2-1-1-1-1-2-2-1-1-------------------------9----8-
Eb|-------------------------3-3-3-3-4-4-4-4-3-4-3-3--------

Stave 15:

Gb|------------------------------------------------------------------------------------------
Db|------------------------------------------------------------------------------------------
Ab|------------------------------------------------------------------------------------------
Eb|-3-1-3-1-6----3-1-3-1-5----3-1-3-1-6----3-1-3-1-5----3-1-3-1-6----3-1-3-1-5----3-1-3-1----

Stave 16:

Gb|---------------------
Db|---------------------
Ab|---------------------
Eb|-6----5----0----1----

Stave 17:

Gb|-------------------------------------------------------------
Db|-------------------------------------------------------------
Ab|-------------------------------------------------------------
Eb|-3-1-3-1-6----3-1-3-1-5----3-1-3-1-6----3-1-3-1-5----3-1-3-1-

Stave 18:

Gb|-----------------------------------------------------
Db|-----------------------------------------------------
Ab|-----------------------------------------------------
Eb|-6----5----6----5----1----4----0----1----4----3----1-

http://www.guitartabcreator.com
Guitar Tab Creator is intended to store guitar tab created through the tool. It currently does not support in-line text editing. Any text you place in here will be lost. If you need to comment on your tab, please use the "Tab Notes" section located below.