Sound will begin in 5 seconds

practice 1

Chords
01234567891011121314151617181920212223
E
B
G
D
A
E
B
0 1 2 3 4 5 6 7 8 9 10 11 12 13 14 15 16 17 18 19 20 21 22 23
Song Science #1: How Pros Use 6 Chords to Write Hit Songs
(/) Slide Up  (\) Slide Down  (h) Hammer On  (p) Pull Off  (b) Bend (r) Release (v) Vibrato

(W|WW) Whole (H|HH) Half (Q|QQ) Quarter (E|EE) 8th (S|SS) 16th (T|TT) 32nd (X|XX) 64th

Stave 1:
t: W H H WW WW WW WW W W W W W W W W W WW WW WW WW
E|------------------------|-----------------0-----1-----------15--18--x---13--
B|------------------------|--------------2-----------1--------15--19--21--12--
G|------------------------|-----------2-----------------2-----16--18--21--13--
D|----8-------------------|--------2-----------------------3------------------
A|----6--------12---------|--------------------0--------------4---------------
E|--3/7--9/11------13\12--|---------------------------------------------------

Stave 2:
t: W W W W W H HH
E|------------------h12--
B|-----------------------
G|-----------------------
D|--------------4----6---
A|-----3-----4-----5-----
E|--3-----4--------------

http://www.guitartabcreator.com
Guitar Tab Creator is intended to store guitar tab created through the tool. It currently does not support in-line text editing. Any text you place in here will be lost. If you need to comment on your tab, please use the "Tab Notes" section located below.