M.O.J.O tab

Chords

01234567891011121314151617181920212223
E
B
G
D
A
E
B
0 1 2 3 4 5 6 7 8 9 10 11 12 13 14 15 16 17 18 19 20 21 22 23
(/) Slide Up  (\) Slide Down  (h) Hammer On  (p) Pull Off  (b) Bend (r) Release (v) Vibrato

Mojo Man (A)

E|------------------------------------------------------------------------------------------------
B|------------------------------------------------------------------------------------------------
G|--2--------2-----------------2-----------------------2--------2--------------2------------------
D|--2--------2-----------------2-----------5-----------2--------2--------------2------------------
A|--0--------0-----------------0-----------3-----------0--------0--------------0------------------
E|--------3-----------------------3--2--0--------------------3--------------------3--2--0--2v-----

Mojo Man (D)

E|---------------------------------------------------------------------------------------------
B|--3--------3-----------------------------------------3--------3------------------------------
G|--2--------2-----------------2-----------------------2--------2------------------------------
D|--0--------0-----------------0-----------3-----------0--------0--------------0---------------
A|--------3-----------------------3--2--0--------------------3--------------------3--2--0------
E|-----------------------------------------------------------------------------------------2v--

Mojo Man (F#)

E|--2--------------------------------------------------3-----------------------------------
B|--2--------------------------------------------------3-----------------------------------
G|--2--------------------------------------------------0-----------------5-----------------
D|--4--------------------------------------------------0-----------------5-----------------
A|--4--------------------------------------------------2-----------------3-----------3-----
E|--2--------------------------------------------------3--------------------------------3--

							http://www.guitartabcreator.com
Instruments
{"strings":[[[".","_",".",".","_","_","_","_","_",".",".",".",".",".","_","_","_",".","_",".",".","_","_","_","_",".",".",".",".",".",".","_"],[".","_",".",".","_","_","_","_","_",".",".",".",".",".","_","_","_",".","_",".",".","_","_","_","_",".",".",".",".",".",".","_"],[2,"_",".",2,"_","_","_","_","_",2,".",".",".",".","_","_","_",2,"_",".",2,"_","_","_","_",2,".",".",".",".",".","_"],[2,"_",".",2,"_","_","_","_","_",2,".",".",".",5,"_","_","_",2,"_",".",2,"_","_","_","_",2,".",".",".",".",".","_"],[0,"_",".",0,"_","_","_","_","_",0,".",".",".",3,"_","_","_",0,"_",".",0,"_","_","_","_",0,".",".",".",".",".","_"],[".","_",3,".","_","_","_","_","_",".",3,2,0,".","_","_","_",".","_",3,".","_","_","_","_",".",3,2,0,2,"v","_"]],[[".","_",".",".","_","_","_","_","_",".",".",".",".",".","_","_","_",".","_",".",".","_","_","_","_",".",".",".",".",".","_"],[3,"_",".",3,"_","_","_","_","_",".",".",".",".",".","_","_","_",3,"_",".",3,"_","_","_","_",".",".",".",".",".","_"],[2,"_",".",2,"_","_","_","_","_",2,".",".",".",".","_","_","_",2,"_",".",2,"_","_","_","_",".",".",".",".",".","_"],[0,"_",".",0,"_","_","_","_","_",0,".",".",".",3,"_","_","_",0,"_",".",0,"_","_","_","_",0,".",".",".",".","_"],[".","_",3,".","_","_","_","_","_",".",3,2,0,".","_","_","_",".","_",3,".","_","_","_","_",".",3,2,0,".","_"],[".","_",".",".","_","_","_","_","_",".",".",".",".",".","_","_","_",".","_",".",".","_","_","_","_",".",".",".",".",2,"v"]],[[2,"_","_","_","_","_","_","_","_","_","_","_","_","_","_","_","_",3,"_","_","_","_","_",".","_","_","_",".","."],[2,"_","_","_","_","_","_","_","_","_","_","_","_","_","_","_","_",3,"_","_","_","_","_",".","_","_","_",".","."],[2,"_","_","_","_","_","_","_","_","_","_","_","_","_","_","_","_",0,"_","_","_","_","_",5,"_","_","_",".","."],[4,"_","_","_","_","_","_","_","_","_","_","_","_","_","_","_","_",0,"_","_","_","_","_",5,"_","_","_",".","."],[4,"_","_","_","_","_","_","_","_","_","_","_","_","_","_","_","_",2,"_","_","_","_","_",3,"_","_","_",3,"."],[2,"_","_","_","_","_","_","_","_","_","_","_","_","_","_","_","_",3,"_","_","_","_","_",".","_","_","_",".",3]]],"numberofstrings":6,"notes":["E","B","G","D","A","E","B"],"capo":0,"stringnotes":["E4","B3","G3","D3","A2","E2"],"comments":["Mojo Man (A)","Mojo Man (D)","Mojo Man (F#)"],"timing":[["W",null,"W","W",null,null,null,null,null,"W","W","W","W","W",null,null,null,"W",null,"W","W",null,null,null,null,"W","W","W","W","W","W","W"],["W",null,"W","W",null,null,null,null,null,"W","W","W","W","W",null,null,null,"W",null,"W","W",null,null,null,null,"W","W","W","W","W"],["W",null,null,null,null,null,null,null,null,null,null,null,null,null,null,null,"W","W",null,null,null,null,null,"W",null,null,null,"W","W"]],"timingvisible":false,"tabcounter":29,"stave":2,"totalstaves":3,"instrument":"6guitar","selectedtuning":"6_standard","version":"13"}

Member for

1 week 5 days
About Me
yup
Submitted by randythemartin on Wed, 2020-07-29 18:02