Sound will begin in 5 seconds

Game of Thrones Capo 3

01234567891011121314151617181920212223
E
B
G
D
A
E
B
0 1 2 3 4 5 6 7 8 9 10 11 12 13 14 15 16 17 18 19 20 21 22 23
(/) Slide Up  (\) Slide Down  (h) Hammer On  (p) Pull Off  (b) Bend (r) Release (v) Vibrato

Stave 1:

E|----------------
B|--8-------------
G|---------8--10--
D|-----10---------
A|----------------
E|----------------

Stave 2:

E|----------------
B|--8-------------
G|---------9--10--
D|-----10---------
A|----------------
E|----------------

Stave 3:

E|------------------------------
B|--8-------------8-------------
G|---------8--10---------8--10--
D|-----10------------10---------
A|------------------------------
E|------------------------------

Stave 4:

E|--------------------------
B|--------------------------
G|--7-------------7---------
D|---------8--10-----8------
A|-----10---------------10--
E|--------------------------

Stave 5:

E|--------------------------------
B|--------------------------------
G|--10-----8--7--10-----8--7------
D|------8------------8--------10--
A|--------------------------------
E|--------------------------------

Stave 6:

E|----------------------------------------
B|----------------------------------------
G|----------------------------------------
D|--10----------8--10----------8--10------
A|------10--11---------10--11---------10--
E|----------------------------------------

Stave 7:

E|------------------------------
B|--8-------------8-------------
G|---------8--10---------8--10--
D|-----10------------10---------
A|------------------------------
E|------------------------------

Stave 8:

E|--
B|--
G|--
D|--
A|--
E|--

http://www.guitartabcreator.com
Guitar Tab Creator is intended to store guitar tab created through the tool. It currently does not support in-line text editing. Any text you place in here will be lost. If you need to comment on your tab, please use the "Tab Notes" section located below.