Sound will begin in 5 seconds

Sihina Pathum Vimane (D Major)

01234567891011121314151617181920212223
E
B
G
D
A
E
B
0 1 2 3 4 5 6 7 8 9 10 11 12 13 14 15 16 17 18 19 20 21 22 23
Song Science #1: How Pros Use 6 Chords to Write Hit Songs
(/) Slide Up  (\) Slide Down  (h) Hammer On  (p) Pull Off  (b) Bend (r) Release (v) Vibrato

Stave 1:

E|--10--10--10--12----------------------------------------------------------------10----------
B|------------------12--10--12--10--12--10--------------------------------------------12--10--
G|------------------------------------------11--11--9----------9--------------11--------------
D|-----------------------------------------------------12--12-----12--12--12------------------
A|--------------------------------------------------------------------------------------------
E|--------------------------------------------------------------------------------------------

Stave 2:

E|----------------------------------------------------------
B|--12--10--12--10------------------------------------------
G|------------------11--11--9--9----------------------------
D|--------------------------------12------9------9----------
A|------------------------------------12-----12-----12------
E|------------------------------------------------------10--

Stave 3:

E|--------------------------------------------------
B|--8--7--5--5/7--------5--3--2--5------2--5--3--2--
G|--------------------------------------------------
D|--------------------------------------------------
A|--------------------------------------------------
E|--------------------------------------------------

Stave 4:

E|--------5--5--5--7--8--7--5-----5/7--------------------
B|--7--7-----------------------8----------------5--------
G|-------------------------------------------6-----7--6--
D|-------------------------------------------------------
A|-------------------------------------------------------
E|-------------------------------------------------------

Stave 5:

E|----------------------------------------------------------------------
B|--7--8--7-----7-----------8--7-----5/8--------7-----8--7--7-----------
G|-----------9-----------9--------9----------------9-----------9--7--6--
D|----------------------------------------------------------------------
A|----------------------------------------------------------------------
E|----------------------------------------------------------------------

Stave 6:

E|------------------------------------
B|------------------------------------
G|--7--6--9--7------------------------
D|------------------9------9----------
A|--------------12-----12-----12------
E|--------------------------------10--

http://www.guitartabcreator.com
Guitar Tab Creator is intended to store guitar tab created through the tool. It currently does not support in-line text editing. Any text you place in here will be lost. If you need to comment on your tab, please use the "Tab Notes" section located below.