Sound will begin in 5 seconds

Kiri Muhuda (G Major)

01234567891011121314151617181920212223
E
B
G
D
A
E
B
0 1 2 3 4 5 6 7 8 9 10 11 12 13 14 15 16 17 18 19 20 21 22 23
Song Science #1: How Pros Use 6 Chords to Write Hit Songs
(/) Slide Up  (\) Slide Down  (h) Hammer On  (p) Pull Off  (b) Bend (r) Release (v) Vibrato

Stave 1:

E|-------------------------3----------------------------
A|--3-----------3--5--3h5-----5p3-----3-----------3-----
D|-----4-----4---------------------5-----4-----4-----2--
G|--------5---------------------------------5-----------
B|------------------------------------------------------
E|------------------------------------------------------

Stave 2:

E|--------------------------------------------------------------
A|--------------------------------------------------------------
D|--------------------------------------------------------------
G|-----------4--5--4--2--------2--------2-----------------------
B|-----2--5--------------5--3-----3--5-----5--3--2--------------
E|--3-----------------------------------------------5--3--2--3--

Stave 3:

E|-----------------------------------------
A|-----3-----3-----3-----3-----------------
D|--4-----5-----4-----5--------4-----2-----
G|--------------------------5-----4-----5--
B|-----------------------------------------
E|-----------------------------------------

Stave 4:

E|--3/7--7--5/8--8--7--------------------------------
A|---------------------------------------------------
D|---------------------------------------------------
G|------------------------------5/9--9--7/10--10--9--
B|---------------------------------------------------
E|---------------------------------------------------

Stave 5:

E|--------3--3/7-----------5--2--------------------------------------
A|-----5-------------------------3--5--------------------------------
D|--5-------------------------------------------------2--------------
G|-----------------------------------------------2/4-----4--2--4-----
B|----------------------------------------------/-----------------5--
E|-------------------------------------------------------------------

http://www.guitartabcreator.com
Guitar Tab Creator is intended to store guitar tab created through the tool. It currently does not support in-line text editing. Any text you place in here will be lost. If you need to comment on your tab, please use the "Tab Notes" section located below.