Sound will begin in 5 seconds

Kalu Mame (A Major)

01234567891011121314151617181920212223
E
B
G
D
A
E
B
0 1 2 3 4 5 6 7 8 9 10 11 12 13 14 15 16 17 18 19 20 21 22 23
Song Science #1: How Pros Use 6 Chords to Write Hit Songs
(/) Slide Up  (\) Slide Down  (h) Hammer On  (p) Pull Off  (b) Bend (r) Release (v) Vibrato

Stave 1:

E|--9------9-----9--9--10--9--7-----7-----7--7--9--7--9------7----------------------------------7--
A|-----10------------------------9-----------------------10-----9--10--9--7-----------7--9--10-----
D|------------9------------------------9-------------------------------------9--9--9---------------
G|-------------------------------------------------------------------------------------------------
B|-------------------------------------------------------------------------------------------------
E|-------------------------------------------------------------------------------------------------

Stave 2:

E|--9--10-----9------9-----9--9--10--9--7-----7-----7--7--9--7--9------7------------------------
A|---------------10------------------------9-----------------------10-----9--10--9--7-----------
D|----------------------9------------------------9-------------------------------------9--9--9--
G|----------------------------------------------------------------------------------------------
B|----------------------------------------------------------------------------------------------
E|----------------------------------------------------------------------------------------------

Stave 3:

E|------------9-------------9---------
A|--7--9--10-----10-----10-----10-----
D|-------------------9-------------9--
G|------------------------------------
B|------------------------------------
E|------------------------------------

Stave 4:

E|--------7--5-----------------------------------------------------
A|-----7-----------------------7--5--------------------------------
D|--7-----------------------6--------------------------------------
G|-----------------------7--------------------6--7--9--7--6--------
B|-----------------------------------------------------------9--7--
E|-----------------------------------------------------------------

Stave 5:

E|--7-------------------------------------------------------------------------------
A|-----9--7-----------------------------------10--9--8--7-----------10--11--12--10--
D|-----------9-----------9--7-----6------------------------7--8--9------------------
G|-----------------------------9----------------------------------------------------
B|----------------------------------------------------------------------------------
E|----------------------------------------------------------------------------------

http://www.guitartabcreator.com
Guitar Tab Creator is intended to store guitar tab created through the tool. It currently does not support in-line text editing. Any text you place in here will be lost. If you need to comment on your tab, please use the "Tab Notes" section located below.