Sound will begin in 5 seconds

Dileepa Podi Puthu ( D Major)

01234567891011121314151617181920212223
E
B
G
D
A
E
B
0 1 2 3 4 5 6 7 8 9 10 11 12 13 14 15 16 17 18 19 20 21 22 23
Song Science #1: How Pros Use 6 Chords to Write Hit Songs
(/) Slide Up  (\) Slide Down  (h) Hammer On  (p) Pull Off  (b) Bend (r) Release (v) Vibrato

Stave 1:

E|--5--5--5--7--7--5--3--5--5--5--9---7--7--5--3--5--5--3--2--0------------------
B|--7--7--7--8--8--7--5--7--7--7--10--8--8--7--5--7--7--5--3--2--5/7--5--5/7--5--
G|-------------------------------------------------------------------------------
D|-------------------------------------------------------------------------------
A|-------------------------------------------------------------------------------
E|-------------------------------------------------------------------------------

Stave 2:

E|--7--7--5--3--2--
B|--8--8--7--5--3--
G|-----------------
D|-----------------
A|-----------------
E|-----------------

Stave 3:

E|-----5/7----------------------------------------------7--9--10--9--7---------
B|--7-----------------12--10------------------7--8--10------------------10--8--
G|----------------12----------9--11--------9-----------------------------------
D|-----------------------------------------------------------------------------
A|-----------------------------------------------------------------------------
E|-----------------------------------------------------------------------------

Stave 4:

E|-----7------------------------------------------------10--
B|--8-----10-----7--------------------------------8---------
G|------------9-----------------9-----6--------7-----7------
D|------------------------7--9-----9------------------------
A|----------------------------------------------------------
E|----------------------------------------------------------

Stave 5:

E|--10--10--------------7--8--7---------7-------------------------------------------
B|----------10--10--10-----------10--8-----------10--10--7--7-----7--8--7-----------
G|-------------------------------------------------------------9-----------9--6--7--
D|----------------------------------------------------------------------------------
A|----------------------------------------------------------------------------------
E|----------------------------------------------------------------------------------

http://www.guitartabcreator.com
Guitar Tab Creator is intended to store guitar tab created through the tool. It currently does not support in-line text editing. Any text you place in here will be lost. If you need to comment on your tab, please use the "Tab Notes" section located below.