Everything I wanted

Chords

01234567891011121314151617181920212223
E
B
G
D
A
E
B
0 1 2 3 4 5 6 7 8 9 10 11 12 13 14 15 16 17 18 19 20 21 22 23
(/) Slide Up  (\) Slide Down  (h) Hammer On  (p) Pull Off  (b) Bend (r) Release (v) Vibrato

Stave 1:

E|-----------------------------------------------------------
B|--2-----0-----2--------------0--2--3--2-----0--------2-----
G|-----2-----------1--2-----2--------------2--------1--------
D|--------------------------------------------------------4--
A|-----------------------------------------------------------
E|-----------------------------------------------------------

Stave 2:

E|-----------------------0-----------------------------------------------------------------0-----------------------------------------
B|--2--0--------------------3--2--3--3--2-----------0--2--3--2--------2--0--------------------3--2--3--3--2--0--2--0-----------------
G|--------2--1-----1--1--------------------------2--------------2-----------2--1-----1--1-----------------------------2--1--2--1-----
D|--------------------------------------------------------------------------------------------------------------------------------4--
A|-----------------------------------------------------------------------------------------------------------------------------------
E|-----------------------------------------------------------------------------------------------------------------------------------

Stave 3:

E|-----------------------------------------------------------------------0-----------------------------0--------------------------
B|-----2--0-----------------------0--2--3--2--------2--0--------------------3--2--3--3--2-----2--2--2-----3--2--0-----------2-----
G|-----------2--1--2--1--------2--------------2-----------2--1-----1--1--------------------------------------------1-----1--------
D|--4--------------------2-----------------------------------------------------------------------------------------------------4--
A|--------------------------------------------------------------------------------------------------------------------------------
E|--------------------------------------------------------------------------------------------------------------------------------

Stave 4:

E|--------------0--2--2--4--0-----0--0--------------2--2--2--4--0-----0--0--------------2--2--5--4-----0--7--5--4--4--5--2-----0--2--2--4--0-----
B|-----0--2-----------------------------3--3--2-----------------------------3--3--2--------------------------------------------------------------
G|--2--------------------------------------------------------------------------------------------------------------------------------------------
D|-----------------------------------------------------------------------------------------------------------------------------------------------
A|-----------------------------------------------------------------------------------------------------------------------------------------------
E|-----------------------------------------------------------------------------------------------------------------------------------------------

Stave 5:

E|-----0-----------
B|--0-----0--3--2--
G|-----------------
D|-----------------
A|-----------------
E|-----------------

							http://www.guitartabcreator.com
Instruments
{"strings":[[[".",".",".","_",".",".",".","_",".",".",".",".",".",".",".","_",".",".","."],[2,".",0,"_",2,".",".","_",".",0,2,3,2,".",0,"_",".",2,"."],[".",2,".","_",".",1,2,"_",2,".",".",".",".",2,".","_",1,".","."],[".",".",".","_",".",".",".","_",".",".",".",".",".",".",".","_",".",".",4],[".",".",".","_",".",".",".","_",".",".",".",".",".",".",".","_",".",".","."],[".",".",".","_",".",".",".","_",".",".",".",".",".",".",".","_",".",".","."]],[[".",".",".",".","_",".",".",0,".",".",".",".",".","_","_",".",".",".",".",".",".","_",".",".",".",".","_",".",".",0,".",".",".",".",".",".",".",".",".",".",".",".","."],[2,0,".",".","_",".",".",".",3,2,3,3,2,"_","_",".",0,2,3,2,".","_",2,0,".",".","_",".",".",".",3,2,3,3,2,0,2,0,".",".",".",".","."],[".",".",2,1,"_",1,1,".",".",".",".",".",".","_","_",2,".",".",".",".",2,"_",".",".",2,1,"_",1,1,".",".",".",".",".",".",".",".",".",2,1,2,1,"."],[".",".",".",".","_",".",".",".",".",".",".",".",".","_","_",".",".",".",".",".",".","_",".",".",".",".","_",".",".",".",".",".",".",".",".",".",".",".",".",".",".",".",4],[".",".",".",".","_",".",".",".",".",".",".",".",".","_","_",".",".",".",".",".",".","_",".",".",".",".","_",".",".",".",".",".",".",".",".",".",".",".",".",".",".",".","."],[".",".",".",".","_",".",".",".",".",".",".",".",".","_","_",".",".",".",".",".",".","_",".",".",".",".","_",".",".",".",".",".",".",".",".",".",".",".",".",".",".",".","."]],[[".",".",".",".",".",".",".",".","_",".",".",".",".",".",".","_",".",".",".",".","_",".",".",0,".",".",".",".",".","_",".",".",".",0,".",".",".",".","_",".",".","."],[".",2,0,".",".",".",".",".","_",".",0,2,3,2,".","_",2,0,".",".","_",".",".",".",3,2,3,3,2,"_",2,2,2,".",3,2,0,".","_",".",2,"."],[".",".",".",2,1,2,1,".","_",2,".",".",".",".",2,"_",".",".",2,1,"_",1,1,".",".",".",".",".",".","_",".",".",".",".",".",".",".",1,"_",1,".","."],[4,".",".",".",".",".",".",2,"_",".",".",".",".",".",".","_",".",".",".",".","_",".",".",".",".",".",".",".",".","_",".",".",".",".",".",".",".",".","_",".",".",4],[".",".",".",".",".",".",".",".","_",".",".",".",".",".",".","_",".",".",".",".","_",".",".",".",".",".",".",".",".","_",".",".",".",".",".",".",".",".","_",".",".","."],[".",".",".",".",".",".",".",".","_",".",".",".",".",".",".","_",".",".",".",".","_",".",".",".",".",".",".",".",".","_",".",".",".",".",".",".",".",".","_",".",".","."]],[[".",".",".","_",0,2,2,4,0,"_",0,0,".",".",".","_",2,2,2,4,0,"_",0,0,".",".",".","_",2,2,5,4,"_",0,7,5,4,4,5,2,"_",0,2,2,4,0,"_"],[".",0,2,"_",".",".",".",".",".","_",".",".",3,3,2,"_",".",".",".",".",".","_",".",".",3,3,2,"_",".",".",".",".","_",".",".",".",".",".",".",".","_",".",".",".",".",".","_"],[2,".",".","_",".",".",".",".",".","_",".",".",".",".",".","_",".",".",".",".",".","_",".",".",".",".",".","_",".",".",".",".","_",".",".",".",".",".",".",".","_",".",".",".",".",".","_"],[".",".",".","_",".",".",".",".",".","_",".",".",".",".",".","_",".",".",".",".",".","_",".",".",".",".",".","_",".",".",".",".","_",".",".",".",".",".",".",".","_",".",".",".",".",".","_"],[".",".",".","_",".",".",".",".",".","_",".",".",".",".",".","_",".",".",".",".",".","_",".",".",".",".",".","_",".",".",".",".","_",".",".",".",".",".",".",".","_",".",".",".",".",".","_"],[".",".",".","_",".",".",".",".",".","_",".",".",".",".",".","_",".",".",".",".",".","_",".",".",".",".",".","_",".",".",".",".","_",".",".",".",".",".",".",".","_",".",".",".",".",".","_"]],[[".",0,".",".","."],[0,".",0,3,2],[".",".",".",".","."],[".",".",".",".","."],[".",".",".",".","."],[".",".",".",".","."]]],"numberofstrings":6,"notes":["E","B","G","D","A","E","B"],"capo":0,"stringnotes":["E4","B3","G3","D3","A2","E2"],"comments":["Stave 1:","Stave 2:","Stave 3:","Stave 4:","Stave 5:"],"timing":[["W","W","W","W","W","W","W","W","W","W","W","W","W","W","W",null,"W","W","W"],["W","W","W","W",null,"W","W","W","W","W","W","W","W",null,null,"W","W","W","W","W","W",null,"W","W","W","W",null,"W","W","W","W","W","W","W","W","W","W","W","W","W","W","W","W"],["W","W","W","W","W","W","W","W",null,"W","W","W","W","W","W",null,"W","W","W","W",null,"W","W","W","W","W","W","W","W",null,"W","W","W","W","W","W","W","W",null,"W","W","W"],["W","W","W",null,"W","W","W","W","W",null,"W","W","W","W","W",null,"W","W","W","W","W",null,"W","W","W","W","W",null,"W","W","W","W",null,"W","W","W","W","W","W","W",null,"W","W","W","W","W",null,"W","W","W"],["W","W","W","W","W"]],"timingvisible":false,"tabcounter":5,"stave":4,"totalstaves":5,"instrument":"6guitar","selectedtuning":"6_standard","version":"13"}

Member for

2 weeks 5 days
Submitted by Rami Aride on Sat, 2020-11-21 11:20