Sound will begin in 5 seconds

vivaldi summer presto

01234567891011121314151617181920212223
E
B
G
D
A
E
B
0 1 2 3 4 5 6 7 8 9 10 11 12 13 14 15 16 17 18 19 20 21 22 23
(/) Slide Up  (\) Slide Down  (h) Hammer On  (p) Pull Off  (b) Bend (r) Release (v) Vibrato

Stave 1:

E|----------------------------------------------15--13--11----------------------------------
B|--15--13--11----------------------------------------------15--13--11----------------------
G|--------------14--12--11----------------------------------------------14--12--10----------
D|--------------------------14--12--10----------------------------------------------14--12--
A|--------------------------------------14--12----------------------------------------------
E|------------------------------------------------------------------------------------------

Stave 2:

E|--18--17--15----------------------------------22--20--18--------------------------------------
B|--------------18--16--15----------------------------------22--20--18--------------------------
G|--------------------------17--15--13----------------------------------21--19--17--------------
D|--------------------------------------17--15--------------------------------------21--20--18--
A|----------------------------------------------------------------------------------------------
E|----------------------------------------------------------------------------------------------

http://www.guitartabcreator.com
Guitar Tab Creator is intended to store guitar tab created through the tool. It currently does not support in-line text editing. Any text you place in here will be lost. If you need to comment on your tab, please use the "Tab Notes" section located below.