Sound will begin in 5 seconds

Shitkicker

01234567891011121314151617181920212223
E
B
G
D
A
E
B
0 1 2 3 4 5 6 7 8 9 10 11 12 13 14 15 16 17 18 19 20 21 22 23
Song Science #1: How Pros Use 6 Chords to Write Hit Songs
(/) Slide Up  (\) Slide Down  (h) Hammer On  (p) Pull Off  (b) Bend (r) Release (v) Vibrato

Stave 1:

G|----------------------------------------------------------
D|----------------------------------------------------------
A|--10--10--10--10--10--10--10--10--6--6--6--6--6--6--8--8--
E|----------------------------------------------------------

Stave 2:

G|----------------------------------------------------------
D|----------------------------------------------------------
A|--10--10--10--10--10--10--10--10--------------------------
E|----------------------------------6--6--6--6--8--8--8--8--

Stave 3:

G|----------------------------------------------------------
D|----------------------------------------------------------
A|--10--10--10--10--10--10--10--10--6--6--6--6--6--6--8--8--
E|----------------------------------------------------------

Stave 4:

G|------------------------------------------------------------------
D|------------------------------------------------------------------
A|--10--10--10--10--10--10--10--10--13--13--13--13--15--15--15--15--
E|------------------------------------------------------------------

Stave 5:

G|---------------------------
D|------------------10\1--3--
A|--10--10--10--10-----------
E|---------------------------

Stave 6:

G|----------------------
D|----------------------
A|----10--10--10--6--5--
E|----------------------

Stave 7:

G|-----------------------------------------------
D|--------------------10\1--1--1--1--3--3--3--3--
A|--10--10--10----10-----------------------------
E|-----------------------------------------------

Stave 8:

G|-------------------
D|-------------------
A|----5v----6v--/10--
E|-------------------

Stave 9:

G|----------------------------------------------------------
D|----------------------------------------------------------
A|--10--10--10--10--10--10--10--10--6--6--6--6--8--8--8--8--
E|----------------------------------------------------------

Stave 10:

G|------------------------------------------------------------------
D|------------------------------------------------------------------
A|--10--10--10--10--10--10--10--10--13--13--13--13--15--15--15--15--
E|------------------------------------------------------------------

Stave 11:

G|----------------------------------------------------------
D|----------------------------------------------------------
A|--10--10--10--10--10--10--10--10--6--6--6--6--8--8--8--8--
E|----------------------------------------------------------

Stave 12:

G|------------------------------------------------------------------
D|------------------------------------------------------------------
A|--10--10--10--10--10--10--10--10--13--13--13--13--15--15--15--15--
E|------------------------------------------------------------------

Stave 13:

G|------------------------------------------------------------
D|------------------------------------------------------------
A|--12--12--12--12--12--12--12--12--8--8--8--8--8--8--10--10--
E|------------------------------------------------------------

Stave 14:

G|----------------------------------------------------------------
D|----------------------------------------------------------------
A|--12--12--12--12--12--12--12--12--------------------------------
E|----------------------------------8--8--8--8--10--10--10----10--

Stave 15:

G|------------------------------------------------------------
D|------------------------------------------------------------
A|--12--12--12--12--12--12--12--12--8--8--8--8--8--8--10--10--
E|------------------------------------------------------------

Stave 16:

G|------------------------------------------------------------------
D|----------------------------------10--10--10--10--12--12--12--12--
A|--12--12--12--12--12--12--12--12----------------------------------
E|------------------------------------------------------------------

Stave 17:

G|---------------------------------
D|------------------12\3--3--5--5--
A|--12--12--12--12-----------------
E|---------------------------------

Stave 18:

G|---------------------------5-----------7-----
D|------------------12\3--3-----3--5--5-----5--
A|--12--12--12--12-----------------------------
E|---------------------------------------------

Stave 19:

G|---------------------------------
D|------------------12\3--3--5--5--
A|--12--12--12--12-----------------
E|---------------------------------

Stave 20:

G|----------
D|----------
A|--3v--5v--
E|----------

http://www.guitartabcreator.com
Guitar Tab Creator is intended to store guitar tab created through the tool. It currently does not support in-line text editing. Any text you place in here will be lost. If you need to comment on your tab, please use the "Tab Notes" section located below.