Sound will begin in 5 seconds

Exercise 2

01234567891011121314151617181920212223
E
B
G
D
A
E
B
0 1 2 3 4 5 6 7 8 9 10 11 12 13 14 15 16 17 18 19 20 21 22 23
Song Science #1: How Pros Use 6 Chords to Write Hit Songs
(/) Slide Up  (\) Slide Down  (h) Hammer On  (p) Pull Off  (b) Bend (r) Release (v) Vibrato

Stave 1:

E|--------------------------------1--4--2--5--------------------------------------------------------
B|--------------------------1--4--------------2--5--------------------------------------------------
G|--------------------1--3--------------------------2--4--------------------------------------3--5--
D|--------------1--3--------------------------------------2--4--------------------------3--5--------
A|--------1--3--------------------------------------------------2--4--------------3--5--------------
E|--1--4--------------------------------------------------------------2--5--3--6--------------------

Stave 2:

E|--------------------------------4--1--5--2--------------------------------------------------------
B|--------------------------4--1--------------5--2--------------------------------------------------
G|--------------------3--1--------------------------4--2--------------------------------------5--3--
D|--------------3--1--------------------------------------4--2--------------------------5--3--------
A|--------3--1--------------------------------------------------4--2--------------5--3--------------
E|--4--1--------------------------------------------------------------5--2--6--3--------------------

Stave 3:

E|-----------------------------------------------1--3--4--2--4--5-----------------------------------------------
B|--------------------------------------1--2--4--------------------2--3--5--------------------------------------
G|-----------------------------0--1--3--------------------------------------1--2--4-----------------------------
D|--------------------1--3--5--------------------------------------------------------2--4--6--------------------
A|-----------1--3--4--------------------------------------------------------------------------2--4--5-----------
E|--1--3--4--------------------------------------------------------------------------------------------2--4--5--

Stave 4:

E|-----------------------------------------------4--3--1--5--4--2-----------------------------------------------
B|--------------------------------------4--2--1--------------------5--3--2--------------------------------------
G|-----------------------------3--1--0--------------------------------------4--2--1-----------------------------
D|--------------------5--3--1--------------------------------------------------------6--4--2--------------------
A|-----------4--3--1--------------------------------------------------------------------------5--4--2-----------
E|--4--3--1--------------------------------------------------------------------------------------------5--4--2--

http://www.guitartabcreator.com
Guitar Tab Creator is intended to store guitar tab created through the tool. It currently does not support in-line text editing. Any text you place in here will be lost. If you need to comment on your tab, please use the "Tab Notes" section located below.