Sound will begin in 5 seconds

pokerwan

01234567891011121314151617181920212223
E
B
G
D
A
E
B
0 1 2 3 4 5 6 7 8 9 10 11 12 13 14 15 16 17 18 19 20 21 22 23
Song Science #1: How Pros Use 6 Chords to Write Hit Songs
(/) Slide Up  (\) Slide Down  (h) Hammer On  (p) Pull Off  (b) Bend (r) Release (v) Vibrato

Stave 1:

E|--------------------------------------------------
B|--1-----1--6--5--6--5-----1-----1--6--5-----------
G|-----0-----------------------0-----------3--------
D|--------------------------------------------------
A|--------------------------------------------------
E|--------------------------------------------------

Stave 2:

E|-----------3--2--3--2--------------3--2--0--------
B|--3-----3-----------------3-----3-----------------
G|-----2-----------------------2--------------------
D|--------------------------------------------------
A|--------------------------------------------------
E|--------------------------------------------------

Stave 3:

E|--1-----1--6--5--3--0--3-----1-----1--6--5--6--8--
B|--------------------------------------------------
G|--------------------------------------------------
D|--------------------------------------------------
A|--------------------------------------------------
E|--------------------------------------------------

Stave 4:

E|--6--8--6--5-----------5-----10-----------------
B|--------------8--7--8---------------------------
G|------------------------------------------------
D|------------------------------------------------
A|------------------------------------------------
E|------------------------------------------------

Stave 5:

E|-----------------------0--------------0-----------------0-----1--0-----
B|--3--------3-----3--1--------3-----3-----3--1--3--1-----------------1--
G|-----2--------2-----------------2--------------------0-----------------
D|-----------------------------------------------------------------------
A|-----------------------------------------------------------------------
E|-----------------------------------------------------------------------

Stave 6:

E|-------------------------------------------------------------------------------------------
B|--6--10--8--6--------------------------6--8-----6--10--8--6--------------------------6--8--
G|---------------9--7--5--7--7--9--9--9------------------------9--7--5--7--7--9--9--9--------
D|-------------------------------------------------------------------------------------------
A|-------------------------------------------------------------------------------------------
E|-------------------------------------------------------------------------------------------

Stave 7:

E|--
B|--
G|--
D|--
A|--
E|--

Stave 8:

E|--
B|--
G|--
D|--
A|--
E|--

http://www.guitartabcreator.com
Guitar Tab Creator is intended to store guitar tab created through the tool. It currently does not support in-line text editing. Any text you place in here will be lost. If you need to comment on your tab, please use the "Tab Notes" section located below.