Sound will begin in 5 seconds

Fallout 4

01234567891011121314151617181920212223
E
B
G
D
A
E
B
0 1 2 3 4 5 6 7 8 9 10 11 12 13 14 15 16 17 18 19 20 21 22 23
Song Science #1: How Pros Use 6 Chords to Write Hit Songs
(/) Slide Up  (\) Slide Down  (h) Hammer On  (p) Pull Off  (b) Bend (r) Release (v) Vibrato

Stave 1:

E|--------------------------
B|--------------------------
G|--------------------------
D|--------------------------
A|--3--3--5--5--8--8--7--7--
E|--------------------------

Stave 2:

E|--------------------------------------------------------
B|--------------------------------------------------------
G|--------------------------------------------------------
D|--------------------------------5-----------------------
A|--3--6--7-----3--6--7-----3--6-----5-----3--5--6--8--6--
E|--------------------------------------------------------

Stave 3:

E|-------------------------------------------------------------
B|-------------------------------------------------------------
G|--8--7--3--5--------8--10--7--8---------8--10---------12-----
D|--------------5------------------10------------8--10---------
A|-------------------------------------------------------------
E|-------------------------------------------------------------

Stave 4:

E|-------------------------------------------------------------------------------
B|--13--15--16-----16--15--11--13---------13--11--13-----16--18----------19--20--
G|---------------------------------12----------------------------15--17----------
D|-------------------------------------------------------------------------------
A|-------------------------------------------------------------------------------
E|-------------------------------------------------------------------------------

Stave 5:

E|--------------------------------------------------
B|--------------------------------------------------
G|--------------------------------------------5-----
D|-----1--2--1-----4--0--------1--2--1-----3--------
A|--3-----------3-----------3-----------3-----------
E|--------------------------------------------------

Stave 6:

E|-----------------------------------------------------------------------------------------
B|---------------------------------------------------------------------------------16--17--
G|--5--8------------------5--8--------------------6-----12--13--13-----15--16--18----------
D|--------10--8--6--5-----------9--8--6-----8--9-------------------------------------------
A|-----------------------------------------------------------------------------------------
E|-----------------------------------------------------------------------------------------

Stave 7:

E|-----------------------------------------------------------------------------------
B|--17--16------14-------------------17--19--17--------------------------------------
G|----------16------13--11--9--9-----------------16--18--17--18--17--18--17--16--17--
D|-----------------------------------------------------------------------------------
A|-----------------------------------------------------------------------------------
E|-----------------------------------------------------------------------------------

Stave 8:

E|------------------------------------------------------
B|------------------------------------------------------
G|-----------------------------4--6--8-----9-----9--10--
D|-----2--3--------------3--4---------------------------
A|--4-----------4-----4---------------------------------
E|------------------------------------------------------

http://www.guitartabcreator.com
Guitar Tab Creator is intended to store guitar tab created through the tool. It currently does not support in-line text editing. Any text you place in here will be lost. If you need to comment on your tab, please use the "Tab Notes" section located below.