Sound will begin in 5 seconds

Dylan's Tab 2

Chords
01234567891011121314151617181920212223
E
B
G
D
A
E
B
0 1 2 3 4 5 6 7 8 9 10 11 12 13 14 15 16 17 18 19 20 21 22 23
Song Science #1: How Pros Use 6 Chords to Write Hit Songs
(/) Slide Up  (\) Slide Down  (h) Hammer On  (p) Pull Off  (b) Bend (r) Release (v) Vibrato

Stave 1:

E|-----0--0--0-----0-----0-----0--0--0-----0-----0-----0--0--0-----0-----0-----2--2--2-----2-----2--
B|-----0--0--0-----0-----0-----1--1--1-----1-----1-----0--0--0-----0-----0-----0--0--0-----0-----0--
G|-----0--0--0-----0-----0-----2--2--2-----2-----2-----0--0--0-----0-----0-----2--2--2-----2-----2--
D|--------------------------------------------2-----------------------------------------------1-----
A|--------------------2-----0-----------3-----------------------------2-----------------2-----------
E|--0-----------3-----------------------------------0-----------3-----------2-----------------------

Stave 2:

E|-----0--0--x-----7--5--7--8---8---8---8---8---10--8---7--7--7--7--7--7--8---7--5--5--5--5--5--
B|-----0--0--x--8-----7--8--10--10--10--10--10--12--10--8--8--8--8--8--8--10--8--7--7--7--7--7--
G|-----0--0--x----------------------------------------------------------------------------------
D|----------------------------------------------------------------------------------------------
A|----------------------------------------------------------------------------------------------
E|--0-------------------------------------------------------------------------------------------

Stave 3:

E|--2--3--5--7--7--7--7--7--7--5--7--8---8---8---8---8---8---10--8---7--7--7--7--7--7--8---7--
B|--4--5--7--8--8--8--8--8--8--7--8--10--10--10--10--10--10--12--10--8--8--8--8--8--8--10--8--
G|--------------------------------------------------------------------------------------------
D|--------------------------------------------------------------------------------------------
A|--------------------------------------------------------------------------------------------
E|--------------------------------------------------------------------------------------------

Stave 4:

E|--5--5--5--5--5--2--3--5--7--7--7--7--7--7--5--7--8---8---8---8---8---8---10--8------
B|--7--7--7--7--7--4--5--7--8--8--8--8--8--8--7--8--10--10--10--10--10--10--12--10-----
G|-------------------------------------------------------------------------------------
D|-------------------------------------------------------------------------------------
A|-------------------------------------------------------------------------------------
E|-------------------------------------------------------------------------------------

Stave 5:

E|--7--7--7--7--7--7--8---7--5--5--5--5--7--5--------7--
B|--8--8--8--8--8--8--10--8--7--7--7--7--------8--7--8--
G|---------------------------------------------------9--
D|------------------------------------------------------
A|------------------------------------------------------
E|------------------------------------------------------

http://www.guitartabcreator.com
Guitar Tab Creator is intended to store guitar tab created through the tool. It currently does not support in-line text editing. Any text you place in here will be lost. If you need to comment on your tab, please use the "Tab Notes" section located below.